  0
SECTION
  2
HEADER
  9
$ACADVER
  1
AC1015
  9
$ACADMAINTVER
 70
     6
  9
$DWGCODEPAGE
  3
ANSI_1250
  9
$INSBASE
 10
0.0
 20
0.0
 30
0.0
  9
$EXTMIN
 10
0.0
 20
0.0
 30
0.0
  9
$EXTMAX
 10
20000.0
 20
10000.0
 30
0.0
  9
$LIMMIN
 10
0.0
 20
0.0
  9
$LIMMAX
 10
20000.0
 20
10000.0
  9
$ORTHOMODE
 70
     0
  9
$REGENMODE
 70
     1
  9
$FILLMODE
 70
     1
  9
$QTEXTMODE
 70
     0
  9
$MIRRTEXT
 70
     1
  9
$LTSCALE
 40
1.0
  9
$ATTMODE
 70
     1
  9
$TEXTSIZE
 40
2.0
  9
$TRACEWID
 40
1.0
  9
$TEXTSTYLE
  7
Standard
  9
$CLAYER
  8
0
  9
$CELTYPE
  6
ByLayer
  9
$CECOLOR
 62
   256
  9
$CELTSCALE
 40
1.0
  9
$DISPSILH
 70
     0
  9
$DIMSCALE
 40
1.0
  9
$DIMASZ
 40
2.0
  9
$DIMEXO
 40
1.0
  9
$DIMDLI
 40
3.75
  9
$DIMRND
 40
0.0
  9
$DIMDLE
 40
0.0
  9
$DIMEXE
 40
1.0
  9
$DIMTP
 40
0.0
  9
$DIMTM
 40
0.0
  9
$DIMTXT
 40
2.0
  9
$DIMCEN
 40
2.5
  9
$DIMTSZ
 40
0.0
  9
$DIMTOL
 70
     0
  9
$DIMLIM
 70
     0
  9
$DIMTIH
 70
     1
  9
$DIMTOH
 70
     1
  9
$DIMSE1
 70
     0
  9
$DIMSE2
 70
     0
  9
$DIMTAD
 70
     1
  9
$DIMZIN
 70
     0
  9
$DIMBLK
  1

  9
$DIMASO
 70
     1
  9
$DIMSHO
 70
     1
  9
$DIMPOST
  1

  9
$DIMAPOST
  1

  9
$DIMALT
 70
     0
  9
$DIMALTD
 70
     3
  9
$DIMALTF
 40
0.0393700787
  9
$DIMLFAC
 40
1.0
  9
$DIMTOFL
 70
     1
  9
$DIMTVP
 40
0.0
  9
$DIMTIX
 70
     0
  9
$DIMSOXD
 70
     0
  9
$DIMSAH
 70
     0
  9
$DIMBLK1
  1

  9
$DIMBLK2
  1

  9
$DIMSTYLE
  2
ISO-25
  9
$DIMCLRD
 70
     0
  9
$DIMCLRE
 70
     0
  9
$DIMCLRT
 70
     0
  9
$DIMTFAC
 40
1.0
  9
$DIMGAP
 40
1.524
  9
$DIMJUST
 70
     0
  9
$DIMSD1
 70
     0
  9
$DIMSD2
 70
     0
  9
$DIMTOLJ
 70
     0
  9
$DIMTZIN
 70
     0
  9
$DIMALTZ
 70
     0
  9
$DIMALTTZ
 70
     0
  9
$DIMUPT
 70
     0
  9
$DIMDEC
 70
     2
  9
$DIMTDEC
 70
     0
  9
$DIMALTU
 70
     2
  9
$DIMALTTD
 70
     3
  9
$DIMTXSTY
  7
Standard
  9
$DIMAUNIT
 70
     0
  9
$DIMADEC
 70
     2
  9
$DIMALTRND
 40
0.0
  9
$DIMAZIN
 70
     0
  9
$DIMDSEP
 70
    44
  9
$DIMATFIT
 70
     3
  9
$DIMFRAC
 70
     0
  9
$DIMLDRBLK
  1

  9
$DIMLUNIT
 70
     2
  9
$DIMLWD
 70
    -2
  9
$DIMLWE
 70
    -2
  9
$DIMTMOVE
 70
     0
  9
$LUNITS
 70
     2
  9
$LUPREC
 70
     3
  9
$SKETCHINC
 40
1.0
  9
$FILLETRAD
 40
10.0
  9
$AUNITS
 70
     0
  9
$AUPREC
 70
     2
  9
$MENU
  1
.
  9
$ELEVATION
 40
0.0
  9
$PELEVATION
 40
0.0
  9
$THICKNESS
 40
0.0
  9
$LIMCHECK
 70
     0
  9
$CHAMFERA
 40
0.0
  9
$CHAMFERB
 40
0.0
  9
$CHAMFERC
 40
0.0
  9
$CHAMFERD
 40
0.0
  9
$SKPOLY
 70
     0
  9
$TDCREATE
 40
2459152.295246319
  9
$TDUCREATE
 40
2459152.253579653
  9
$TDUPDATE
 40
2459152.295246852
  9
$TDUUPDATE
 40
2459152.253580185
  9
$TDINDWG
 40
0.0000000116
  9
$TDUSRTIMER
 40
0.0000000116
  9
$USRTIMER
 70
     1
  9
$ANGBASE
 50
0.0
  9
$ANGDIR
 70
     0
  9
$PDMODE
 70
     0
  9
$PDSIZE
 40
-1.0
  9
$PLINEWID
 40
0.0
  9
$SPLFRAME
 70
     0
  9
$SPLINETYPE
 70
     6
  9
$SPLINESEGS
 70
     8
  9
$HANDSEED
  5
315
  9
$SURFTAB1
 70
     6
  9
$SURFTAB2
 70
     6
  9
$SURFTYPE
 70
     6
  9
$SURFU
 70
     6
  9
$SURFV
 70
     6
  9
$UCSBASE
  2

  9
$UCSNAME
  2

  9
$UCSORG
 10
0.0
 20
0.0
 30
0.0
  9
$UCSXDIR
 10
1.0
 20
0.0
 30
0.0
  9
$UCSYDIR
 10
0.0
 20
1.0
 30
0.0
  9
$UCSORTHOREF
  2

  9
$UCSORTHOVIEW
 70
     0
  9
$UCSORGTOP
 10
0.0
 20
0.0
 30
0.0
  9
$UCSORGBOTTOM
 10
0.0
 20
0.0
 30
0.0
  9
$UCSORGLEFT
 10
0.0
 20
0.0
 30
0.0
  9
$UCSORGRIGHT
 10
0.0
 20
0.0
 30
0.0
  9
$UCSORGFRONT
 10
0.0
 20
0.0
 30
0.0
  9
$UCSORGBACK
 10
0.0
 20
0.0
 30
0.0
  9
$PUCSBASE
  2

  9
$PUCSNAME
  2

  9
$PUCSORG
 10
0.0
 20
0.0
 30
0.0
  9
$PUCSXDIR
 10
1.0
 20
0.0
 30
0.0
  9
$PUCSYDIR
 10
0.0
 20
1.0
 30
0.0
  9
$PUCSORTHOREF
  2

  9
$PUCSORTHOVIEW
 70
     0
  9
$PUCSORGTOP
 10
0.0
 20
0.0
 30
0.0
  9
$PUCSORGBOTTOM
 10
0.0
 20
0.0
 30
0.0
  9
$PUCSORGLEFT
 10
0.0
 20
0.0
 30
0.0
  9
$PUCSORGRIGHT
 10
0.0
 20
0.0
 30
0.0
  9
$PUCSORGFRONT
 10
0.0
 20
0.0
 30
0.0
  9
$PUCSORGBACK
 10
0.0
 20
0.0
 30
0.0
  9
$USERI1
 70
     0
  9
$USERI2
 70
     0
  9
$USERI3
 70
     0
  9
$USERI4
 70
     0
  9
$USERI5
 70
     0
  9
$USERR1
 40
0.0
  9
$USERR2
 40
0.0
  9
$USERR3
 40
0.0
  9
$USERR4
 40
0.0
  9
$USERR5
 40
0.0
  9
$WORLDVIEW
 70
     1
  9
$SHADEDGE
 70
     3
  9
$SHADEDIF
 70
    70
  9
$TILEMODE
 70
     1
  9
$MAXACTVP
 70
    64
  9
$PINSBASE
 10
0.0
 20
0.0
 30
0.0
  9
$PLIMCHECK
 70
     0
  9
$PEXTMIN
 10
1.0000000000E+20
 20
1.0000000000E+20
 30
1.0000000000E+20
  9
$PEXTMAX
 10
-1.0000000000E+20
 20
-1.0000000000E+20
 30
-1.0000000000E+20
  9
$PLIMMIN
 10
0.0
 20
0.0
  9
$PLIMMAX
 10
420.0
 20
297.0
  9
$UNITMODE
 70
     0
  9
$VISRETAIN
 70
     1
  9
$PLINEGEN
 70
     0
  9
$PSLTSCALE
 70
     1
  9
$TREEDEPTH
 70
  3020
  9
$CMLSTYLE
  2
Standard
  9
$CMLJUST
 70
     0
  9
$CMLSCALE
 40
20.0
  9
$PROXYGRAPHICS
 70
     1
  9
$MEASUREMENT
 70
     1
  9
$CELWEIGHT
370
    -1
  9
$ENDCAPS
280
     0
  9
$JOINSTYLE
280
     0
  9
$LWDISPLAY
290
     1
  9
$INSUNITS
 70
     4
  9
$HYPERLINKBASE
  1

  9
$STYLESHEET
  1

  9
$XEDIT
290
     1
  9
$CEPSNTYPE
380
     0
  9
$PSTYLEMODE
290
     1
  9
$FINGERPRINTGUID
  2
{9fb78e7b-f4eb-4c89-86aa-d02f0315c5bd}
  9
$VERSIONGUID
  2
{FAEB1C32-E019-11D5-929B-00C0DF256EC4}
  9
$EXTNAMES
290
     1
  9
$PSVPSCALE
 40
0.0
  9
$OLESTARTUP
290
     0
  0
ENDSEC
  0
SECTION
  2
CLASSES
  0
CLASS
  1
ACDBDICTIONARYWDFLT
  2
AcDbDictionaryWithDefault
  3
ObjectDBX Classes
 90
        0
280
     0
281
     0
  0
CLASS
  1
VISUALSTYLE
  2
AcDbVisualStyle
  3
ObjectDBX Classes
 90
     4095
280
     0
281
     0
  0
CLASS
  1
MATERIAL
  2
AcDbMaterial
  3
ObjectDBX Classes
 90
     1153
280
     0
281
     0
  0
CLASS
  1
SCALE
  2
AcDbScale
  3
ObjectDBX Classes
 90
     1153
280
     0
281
     0
  0
CLASS
  1
TABLESTYLE
  2
AcDbTableStyle
  3
ObjectDBX Classes
 90
     4095
280
     0
281
     0
  0
CLASS
  1
MLEADERSTYLE
  2
AcDbMLeaderStyle
  3
ACDB_MLEADERSTYLE_CLASS
 90
     4095
280
     0
281
     0
  0
CLASS
  1
SUN
  2
AcDbSun
  3
SCENEOE
 90
     1153
280
     0
281
     0
  0
CLASS
  1
ACDBPLACEHOLDER
  2
AcDbPlaceHolder
  3
ObjectDBX Classes
 90
        0
280
     0
281
     0
  0
CLASS
  1
LAYOUT
  2
AcDbLayout
  3
ObjectDBX Classes
 90
        0
280
     0
281
     0
  0
ENDSEC
  0
SECTION
  2
TABLES
  0
TABLE
  2
VPORT
  5
8
330
0
100
AcDbSymbolTable
 70
     1
  0
VPORT
  5
29
330
8
100
AcDbSymbolTableRecord
100
AcDbViewportTableRecord
  2
*Active
 70
     0
 10
0.0
 20
0.0
 11
1.0
 21
1.0
 12
10000.0
 22
5000.0
 13
0.0
 23
0.0
 14
10.0
 24
10.0
 15
10.0
 25
10.0
 16
0.0
 26
0.0
 36
1.0
 17
0.0
 27
0.0
 37
0.0
 40
10000.0
 41
2.0
 42
50.0
 43
0.0
 44
0.0
 50
0.0
 51
0.0
 71
     0
 72
  2000
 73
     1
 74
     3
 75
     0
 76
     0
 77
     0
 78
     0
281
     0
 65
     1
110
0.0
120
0.0
130
0.0
111
1.0
121
0.0
131
0.0
112
0.0
122
1.0
132
0.0
 79
     0
146
0.0
  0
ENDTAB
  0
TABLE
  2
LTYPE
  5
5
330
0
100
AcDbSymbolTable
 70
     6
  0
LTYPE
  5
14
330
5
100
AcDbSymbolTableRecord
100
AcDbLinetypeTableRecord
  2
ByBlock
 70
     0
  3

 72
    65
 73
     0
 40
0.0
  0
LTYPE
  5
15
330
5
100
AcDbSymbolTableRecord
100
AcDbLinetypeTableRecord
  2
ByLayer
 70
     0
  3

 72
    65
 73
     0
 40
0.0
  0
LTYPE
  5
16
330
5
100
AcDbSymbolTableRecord
100
AcDbLinetypeTableRecord
  2
Continuous
 70
     0
  3
Solid line
 72
    65
 73
     0
 40
0.0
  0
LTYPE
  5
6E
330
5
100
AcDbSymbolTableRecord
100
AcDbLinetypeTableRecord
  2
HIDDEN
 70
     0
  3
Hidden __ __ __ __ __ __ __ __ __ __ __ __ __ __
 72
    65
 73
     2
 40
1.905
 49
1.27
 74
     0
 49
-0.635
 74
     0
  0
LTYPE
  5
6F
330
5
100
AcDbSymbolTableRecord
100
AcDbLinetypeTableRecord
  2
PHANTOM
 70
     0
  3
Phantom ______  __  __  ______  __  __  ______
 72
    65
 73
     6
 40
12.7
 49
6.35
 74
     0
 49
-1.27
 74
     0
 49
1.27
 74
     0
 49
-1.27
 74
     0
 49
1.27
 74
     0
 49
-1.27
 74
     0
  0
LTYPE
  5
70
330
5
100
AcDbSymbolTableRecord
100
AcDbLinetypeTableRecord
  2
CENTER
 70
     0
  3
Center ____ _ ____ _ ____ _ ____ _ ____ _ ____
 72
    65
 73
     4
 40
10.16
 49
6.35
 74
     0
 49
-1.27
 74
     0
 49
1.27
 74
     0
 49
-1.27
 74
     0
  0
LTYPE
  5
71
330
5
100
AcDbSymbolTableRecord
100
AcDbLinetypeTableRecord
  2
CENTERX2
 70
     0
  3
Center (2x) ________  __  ________  __  _____
 72
    65
 73
     4
 40
20.32
 49
12.7
 74
     0
 49
-2.54
 74
     0
 49
2.54
 74
     0
 49
-2.54
 74
     0
  0
LTYPE
  5
72
330
5
100
AcDbSymbolTableRecord
100
AcDbLinetypeTableRecord
  2
DOT2
 70
     0
  3
Dot (.5x) ........................................
 72
    65
 73
     2
 40
0.635
 49
0.0
 74
     0
 49
-0.635
 74
     0
  0
ENDTAB
  0
TABLE
  2
LAYER
  5
2
330
0
100
AcDbSymbolTable
 70
    13
  0
LAYER
  5
10
330
2
100
AcDbSymbolTableRecord
100
AcDbLayerTableRecord
  2
0
 70
     0
 62
     7
  6
Continuous
370
    -3
390
F
  0
LAYER
  5
73
330
2
100
AcDbSymbolTableRecord
100
AcDbLayerTableRecord
  2
FORMAT
 70
     0
 62
     7
  6
Continuous
370
    -3
390
F
  0
LAYER
  5
74
330
2
100
AcDbSymbolTableRecord
100
AcDbLayerTableRecord
  2
OSA
 70
     0
 62
     7
  6
CENTER
370
    -3
390
F
  0
LAYER
  5
75
330
2
100
AcDbSymbolTableRecord
100
AcDbLayerTableRecord
  2
0_35
 70
     0
 62
     7
  6
Continuous
370
    35
390
F
  0
LAYER
  5
76
330
2
100
AcDbSymbolTableRecord
100
AcDbLayerTableRecord
  2
0_5
 70
     0
 62
     7
  6
Continuous
370
    50
390
F
  0
LAYER
  5
77
330
2
100
AcDbSymbolTableRecord
100
AcDbLayerTableRecord
  2
0_25
 70
     0
 62
     7
  6
Continuous
370
    25
390
F
  0
LAYER
  5
78
330
2
100
AcDbSymbolTableRecord
100
AcDbLayerTableRecord
  2
0_18
 70
     0
 62
     7
  6
Continuous
370
    -3
390
F
  0
LAYER
  5
79
330
2
100
AcDbSymbolTableRecord
100
AcDbLayerTableRecord
  2
SLD-0
 70
     0
 62
   179
  6
Continuous
370
    -3
390
F
  0
LAYER
  5
7A
330
2
100
AcDbSymbolTableRecord
100
AcDbLayerTableRecord
  2
KOTY
 70
     0
 62
     7
  6
Continuous
370
    -3
390
F
  0
LAYER
  5
7B
330
2
100
AcDbSymbolTableRecord
100
AcDbLayerTableRecord
  2
SILNA
 70
     0
 62
   179
  6
Continuous
370
    -3
390
F
  0
LAYER
  5
7C
330
2
100
AcDbSymbolTableRecord
100
AcDbLayerTableRecord
  2
0_18_1
 70
     0
 62
   179
  6
Continuous
370
    -3
390
F
  0
LAYER
  5
7D
330
2
100
AcDbSymbolTableRecord
100
AcDbLayerTableRecord
  2
0_35_1
 70
     0
 62
   179
  6
Continuous
370
    35
390
F
  0
LAYER
  5
7E
330
2
100
AcDbSymbolTableRecord
100
AcDbLayerTableRecord
  2
0_5_1
 70
     0
 62
   179
  6
Continuous
370
    50
390
F
  0
ENDTAB
  0
TABLE
  2
STYLE
  5
3
330
0
100
AcDbSymbolTable
 70
     1
  0
STYLE
  5
11
330
3
100
AcDbSymbolTableRecord
100
AcDbTextStyleTableRecord
  2
Standard
 70
     0
 40
0.0
 41
1.0
 50
0.0
 71
     0
 42
2.0
  3
txt
  4

  0
ENDTAB
  0
TABLE
  2
VIEW
  5
6
330
0
100
AcDbSymbolTable
 70
     0
  0
ENDTAB
  0
TABLE
  2
UCS
  5
7
330
0
100
AcDbSymbolTable
 70
     0
  0
ENDTAB
  0
TABLE
  2
APPID
  5
9
330
0
100
AcDbSymbolTable
 70
     1
  0
APPID
  5
12
330
9
100
AcDbSymbolTableRecord
100
AcDbRegAppTableRecord
  2
ACAD
 70
     0
  0
ENDTAB
  0
TABLE
  2
DIMSTYLE
  5
A
330
0
100
AcDbSymbolTable
 70
     1
100
AcDbDimStyleTable
  0
DIMSTYLE
105
27
330
A
100
AcDbSymbolTableRecord
100
AcDbDimStyleTableRecord
  2
ISO-25
 70
     0
 41
2.5
 42
0.625
 43
3.75
 44
1.25
 73
     0
 74
     0
 77
     1
 78
     8
140
2.5
141
2.5
143
0.0393700787
147
0.625
171
     3
172
     1
178
     0
271
     2
272
     2
274
     3
278
    44
283
     0
284
     8
340
11
  0
ENDTAB
  0
TABLE
  2
BLOCK_RECORD
  5
1
330
0
100
AcDbSymbolTable
 70
     1
  0
BLOCK_RECORD
  5
1F
330
1
100
AcDbSymbolTableRecord
100
AcDbBlockTableRecord
  2
*Model_Space
340
22
  0
BLOCK_RECORD
  5
1B
330
1
100
AcDbSymbolTableRecord
100
AcDbBlockTableRecord
  2
*Paper_Space
340
1E
  0
BLOCK_RECORD
  5
23
330
1
100
AcDbSymbolTableRecord
100
AcDbBlockTableRecord
  2
*Paper_Space0
340
26
  0
ENDTAB
  0
ENDSEC
  0
SECTION
  2
BLOCKS
  0
BLOCK
  5
20
330
1F
100
AcDbEntity
  8
0
100
AcDbBlockBegin
  2
*Model_Space
 70
     0
 10
0.0
 20
0.0
 30
0.0
  3
*Model_Space
  1

  0
ENDBLK
  5
21
330
1F
100
AcDbEntity
  8
0
100
AcDbBlockEnd
  0
BLOCK
  5
1C
330
1B
100
AcDbEntity
 67
     1
  8
0
100
AcDbBlockBegin
  2
*Paper_Space
 70
     0
 10
0.0
 20
0.0
 30
0.0
  3
*Paper_Space
  1

  0
ENDBLK
  5
1D
330
1B
100
AcDbEntity
 67
     1
  8
0
100
AcDbBlockEnd
  0
BLOCK
  5
24
330
23
100
AcDbEntity
  8
0
100
AcDbBlockBegin
  2
*Paper_Space0
 70
     0
 10
0.0
 20
0.0
 30
0.0
  3
*Paper_Space0
  1

  0
ENDBLK
  5
25
330
23
100
AcDbEntity
  8
0
100
AcDbBlockEnd
  0
ENDSEC
  0
SECTION
  2
ENTITIES
  0
ARC
  5
7F
330
1F
100
AcDbEntity
  8
0
  6
Continuous
 62
     7
370
    25
100
AcDbCircle
 10
6539.6115048898
 20
5111.9705148548
 30
0.0
 40
22.49999999999983
100
AcDbArc
 50
10.2403483212
 51
169.7596516788
  0
LINE
  5
80
330
1F
100
AcDbEntity
  8
0
  6
Continuous
 62
     7
370
    25
100
AcDbLine
 10
6782.1115048898
 20
4237.9705148548
 30
0.0
 11
6866.968337627
 21
4625.8874645105
 31
0.0
  0
ARC
  5
81
330
1F
100
AcDbEntity
  8
0
  6
Continuous
 62
     7
370
    25
100
AcDbCircle
 10
6857.1875427934
 20
4627.9705148548
 30
0.0
 40
10.00000000000091
100
AcDbArc
 50
347.6609127217
 51
90.0
  0
LWPOLYLINE
  5
82
330
1F
100
AcDbEntity
  8
0
  6
Continuous
 62
     7
370
    25
100
AcDbPolyline
 90
       21
 70
   128
 43
0.0
 10
6548.8610564503
 20
5130.2773876587
 10
6549.7589546832
 20
5130.1494975639
 10
6550.7498242877
 20
5129.7783460531
 10
6551.7366720429
 20
5129.2002640221
 10
6552.6228984149
 20
5128.4718381678
 10
6553.3217533916
 20
5127.6643718881
 10
6553.7648281788
 20
5126.8569056084
 10
6553.9087515291
 20
5126.1284797541
 10
6553.7394352223
 20
5125.5503977231
 10
6553.2734531182
 20
5125.1792462123
 10
6552.5564187918
 20
5125.0513561175
 10
6551.6585205588
 20
5125.1792462123
 10
6550.6676509544
 20
5125.5503977231
 10
6549.6808031991
 20
5126.1284797541
 10
6548.7945768271
 20
5126.8569056084
 10
6548.0957218504
 20
5127.6643718881
 10
6547.6526470632
 20
5128.4718381678
 10
6547.5087237129
 20
5129.2002640221
 10
6547.6780400197
 20
5129.7783460531
 10
6548.1440221238
 20
5130.1494975639
 10
6548.8610564503
 20
5130.2773876587
  0
LWPOLYLINE
  5
83
330
1F
100
AcDbEntity
  8
0
  6
Continuous
 62
     7
370
    25
100
AcDbPolyline
 90
       14
 70
   128
 43
0.0
 10
6552.1723313877
 20
5125.0770991569
 10
6552.4961296694
 20
5125.1792873879
 10
6552.873681548
 20
5125.5476507998
 10
6552.9481737573
 20
5126.1120162893
 10
6552.7106214377
 20
5126.8043130491
 10
6552.1896769047
 20
5127.5410398729
 10
6551.4481737573
 20
5128.2333366328
 10
6550.5755482186
 20
5128.7977021223
 10
6549.677051807
 20
5129.1660655342
 10
6548.8610564503
 20
5129.2939968046
 10
6548.2259832311
 20
5129.1660655342
 10
6547.8484313526
 20
5128.7977021223
 10
6547.7739391432
 20
5128.2333366328
 10
6547.7815689088
 20
5128.1818370768
  0
ARC
  5
84
330
1F
100
AcDbEntity
  8
0
  6
Continuous
 62
     7
370
    25
100
AcDbCircle
 10
6506.6799707916
 20
5112.9080148548
 30
0.0
 40
3.124374937487382
100
AcDbArc
 50
101.421753659
 51
188.0494669755
  0
LINE
  5
85
330
1F
100
AcDbEntity
  8
0
  6
Continuous
 62
     7
370
    25
100
AcDbLine
 10
6506.0612523581
 20
5112.4705148548
 30
0.0
 11
6506.0612523581
 21
5115.9705148548
 31
0.0
  0
LINE
  5
86
330
1F
100
AcDbEntity
  8
0
  6
Continuous
 62
     7
370
    25
100
AcDbLine
 10
6503.5863786239
 20
5112.4705148548
 30
0.0
 11
6506.0612523581
 21
5112.4705148548
 31
0.0
  0
LINE
  5
87
330
1F
100
AcDbEntity
  8
0
  6
Continuous
 62
     7
370
    25
100
AcDbLine
 10
6503.5863786239
 20
5109.9705148548
 30
0.0
 11
6503.5863786239
 21
5112.4705148548
 31
0.0
  0
LINE
  5
88
330
1F
100
AcDbEntity
  8
0
  6
Continuous
 62
     7
370
    25
100
AcDbLine
 10
6506.0612523581
 20
5112.4705148548
 30
0.0
 11
6506.0612523581
 21
5109.9705148548
 31
0.0
  0
LINE
  5
89
330
1F
100
AcDbEntity
  8
0
  6
Continuous
 62
     7
370
    25
100
AcDbLine
 10
6506.0612523581
 20
5109.9705148548
 30
0.0
 11
6503.5863786239
 21
5109.9705148548
 31
0.0
  0
LINE
  5
8A
330
1F
100
AcDbEntity
  8
0
  6
Continuous
 62
     7
370
    25
100
AcDbLine
 10
6873.1617574215
 20
5112.4705148548
 30
0.0
 11
6873.1617574215
 21
5115.9705148548
 31
0.0
  0
ARC
  5
8B
330
1F
100
AcDbEntity
  8
0
  6
Continuous
 62
     7
370
    25
100
AcDbCircle
 10
6872.5430389879
 20
5112.9080148548
 30
0.0
 40
3.124374937486671
100
AcDbArc
 50
351.9505330245
 51
78.578246341
  0
LINE
  5
8C
330
1F
100
AcDbEntity
  8
0
  6
Continuous
 62
     7
370
    25
100
AcDbLine
 10
6873.1617574215
 20
5112.4705148548
 30
0.0
 11
6875.6366311556
 21
5112.4705148548
 31
0.0
  0
LINE
  5
8D
330
1F
100
AcDbEntity
  8
0
  6
Continuous
 62
     7
370
    25
100
AcDbLine
 10
6873.1617574215
 20
5112.4705148548
 30
0.0
 11
6506.0612523581
 21
5112.4705148548
 31
0.0
  0
LINE
  5
8E
330
1F
100
AcDbEntity
  8
0
  6
Continuous
 62
     7
370
    25
100
AcDbLine
 10
6506.0612523581
 20
5115.9705148548
 30
0.0
 11
6873.1617574215
 21
5115.9705148548
 31
0.0
  0
LINE
  5
8F
330
1F
100
AcDbEntity
  8
0
  6
Continuous
 62
     7
370
    25
100
AcDbLine
 10
6873.1617574215
 20
5109.9705148548
 30
0.0
 11
6873.1617574215
 21
5112.4705148548
 31
0.0
  0
LINE
  5
90
330
1F
100
AcDbEntity
  8
0
  6
Continuous
 62
     7
370
    25
100
AcDbLine
 10
6875.6366311556
 20
5112.4705148548
 30
0.0
 11
6875.6366311556
 21
5109.9705148548
 31
0.0
  0
LINE
  5
91
330
1F
100
AcDbEntity
  8
0
  6
Continuous
 62
     7
370
    25
100
AcDbLine
 10
6875.6366311556
 20
5109.9705148548
 30
0.0
 11
6873.1617574215
 21
5109.9705148548
 31
0.0
  0
LINE
  5
92
330
1F
100
AcDbEntity
  8
0
  6
Continuous
 62
     7
370
    25
100
AcDbLine
 10
6506.0612523581
 20
5109.9705148548
 30
0.0
 11
6873.1617574215
 21
5109.9705148548
 31
0.0
  0
LINE
  5
93
330
1F
100
AcDbEntity
  8
0
  6
Continuous
 62
     7
370
    25
100
AcDbLine
 10
6916.1800473847
 20
5112.4705148548
 30
0.0
 11
6875.6366311556
 21
5112.4705148548
 31
0.0
  0
LINE
  5
94
330
1F
100
AcDbEntity
  8
0
  6
Continuous
 62
     7
370
    25
100
AcDbLine
 10
6916.1800473847
 20
5109.9705148548
 30
0.0
 11
6916.1800473847
 21
5112.4705148548
 31
0.0
  0
LINE
  5
95
330
1F
100
AcDbEntity
  8
0
  6
Continuous
 62
     7
370
    25
100
AcDbLine
 10
6875.6366311556
 20
5109.9705148548
 30
0.0
 11
6916.1800473847
 21
5109.9705148548
 31
0.0
  0
LINE
  5
96
330
1F
100
AcDbEntity
  8
0
  6
Continuous
 62
     7
370
    25
100
AcDbLine
 10
6503.5863786239
 20
5112.4705148548
 30
0.0
 11
6463.0429623948
 21
5112.4705148548
 31
0.0
  0
ARC
  5
97
330
1F
100
AcDbEntity
  8
0
  6
Continuous
 62
     7
370
    25
100
AcDbCircle
 10
6466.1365545625
 20
5112.9080148548
 30
0.0
 40
3.124374937486491
100
AcDbArc
 50
101.421753659
 51
188.0494669755
  0
LINE
  5
98
330
1F
100
AcDbEntity
  8
0
  6
Continuous
 62
     7
370
    25
100
AcDbLine
 10
6465.517836129
 20
5115.9705148548
 30
0.0
 11
6506.0612523581
 21
5115.9705148548
 31
0.0
  0
LINE
  5
99
330
1F
100
AcDbEntity
  8
0
  6
Continuous
 62
     7
370
    25
100
AcDbLine
 10
6873.1617574215
 20
5115.9705148548
 30
0.0
 11
6913.7051736505
 21
5115.9705148548
 31
0.0
  0
ARC
  5
9A
330
1F
100
AcDbEntity
  8
0
  6
Continuous
 62
     7
370
    25
100
AcDbCircle
 10
6913.086455217
 20
5112.9080148548
 30
0.0
 40
3.124374937486438
100
AcDbArc
 50
351.9505330245
 51
78.5782463411
  0
LINE
  5
9B
330
1F
100
AcDbEntity
  8
0
  6
Continuous
 62
     7
370
    25
100
AcDbLine
 10
6463.0429623948
 20
5112.4705148548
 30
0.0
 11
6463.0429623948
 21
5109.9705148548
 31
0.0
  0
LINE
  5
9C
330
1F
100
AcDbEntity
  8
0
  6
Continuous
 62
     7
370
    25
100
AcDbLine
 10
6463.0429623948
 20
5109.9705148548
 30
0.0
 11
6503.5863786239
 21
5109.9705148548
 31
0.0
  0
LINE
  5
9D
330
1F
100
AcDbEntity
  8
0
  6
Continuous
 62
     7
370
    25
100
AcDbLine
 10
6939.6115048898
 20
5112.4705148548
 30
0.0
 11
6916.1800473847
 21
5112.4705148548
 31
0.0
  0
LINE
  5
9E
330
1F
100
AcDbEntity
  8
0
  6
Continuous
 62
     7
370
    25
100
AcDbLine
 10
6939.6115048898
 20
5112.4705148548
 30
0.0
 11
6939.6115048898
 21
5109.9705148548
 31
0.0
  0
LINE
  5
9F
330
1F
100
AcDbEntity
  8
0
  6
Continuous
 62
     7
370
    25
100
AcDbLine
 10
6939.6115048898
 20
5109.9705148548
 30
0.0
 11
6916.1800473847
 21
5109.9705148548
 31
0.0
  0
ARC
  5
A0
330
1F
100
AcDbEntity
  8
0
  6
Continuous
 62
     7
370
    25
100
AcDbCircle
 10
6936.1115048898
 20
5112.4705148548
 30
0.0
 40
3.5
100
AcDbArc
 50
0.0
 51
90.0
  0
LINE
  5
A1
330
1F
100
AcDbEntity
  8
0
  6
Continuous
 62
     7
370
    25
100
AcDbLine
 10
6913.7051736505
 20
5115.9705148548
 30
0.0
 11
6936.1115048898
 21
5115.9705148548
 31
0.0
  0
LINE
  5
A2
330
1F
100
AcDbEntity
  8
0
  6
Continuous
 62
     7
370
    25
100
AcDbLine
 10
6439.6115048898
 20
5109.9705148548
 30
0.0
 11
6439.6115048898
 21
5112.4705148548
 31
0.0
  0
LINE
  5
A3
330
1F
100
AcDbEntity
  8
0
  6
Continuous
 62
     7
370
    25
100
AcDbLine
 10
6463.0429623948
 20
5112.4705148548
 30
0.0
 11
6439.6115048898
 21
5112.4705148548
 31
0.0
  0
LINE
  5
A4
330
1F
100
AcDbEntity
  8
0
  6
Continuous
 62
     7
370
    25
100
AcDbLine
 10
6463.0429623948
 20
5109.9705148548
 30
0.0
 11
6439.6115048898
 21
5109.9705148548
 31
0.0
  0
ARC
  5
A5
330
1F
100
AcDbEntity
  8
0
  6
Continuous
 62
     7
370
    25
100
AcDbCircle
 10
6443.1115048898
 20
5112.4705148548
 30
0.0
 40
3.5
100
AcDbArc
 50
90.0
 51
180.0
  0
LINE
  5
A6
330
1F
100
AcDbEntity
  8
0
  6
Continuous
 62
     7
370
    25
100
AcDbLine
 10
6443.1115048898
 20
5115.9705148548
 30
0.0
 11
6465.517836129
 21
5115.9705148548
 31
0.0
  0
LINE
  5
A7
330
1F
100
AcDbEntity
  8
0
  6
Continuous
 62
     7
370
    25
100
AcDbLine
 10
6782.1115048898
 20
4237.9705148548
 30
0.0
 11
6597.1115048898
 21
4237.9705148548
 31
0.0
  0
LINE
  5
A8
330
1F
100
AcDbEntity
  8
0
  6
Continuous
 62
     7
370
    25
100
AcDbLine
 10
6597.1115048898
 20
4237.9705148548
 30
0.0
 11
6512.2664668122
 21
4625.8335460667
 31
0.0
  0
LWPOLYLINE
  5
A9
330
1F
100
AcDbEntity
  8
0
  6
Continuous
 62
     7
370
    25
100
AcDbPolyline
 90
       40
 70
   128
 43
0.0
 10
6866.950253391
 20
4625.8263177752
 10
6866.6980631645
 20
4625.7812582805
 10
6866.0783005612
 20
4625.7362967329
 10
6864.003683138
 20
4625.6549005866
 10
6860.7260976594
 20
4625.5751339683
 10
6856.1175703982
 20
4625.4954393289
 10
6850.2934194922
 20
4625.4187705574
 10
6843.5043429118
 20
4625.3477193196
 10
6835.6540187045
 20
4625.2804733525
 10
6826.521369271
 20
4625.2157927737
 10
6816.3896148479
 20
4625.1559227019
 10
6805.6675413705
 20
4625.102885451
 10
6794.1482703267
 20
4625.0550208536
 10
6781.5430142355
 20
4625.0114040738
 10
6768.2689727198
 20
4624.9737846825
 10
6754.813195822
 20
4624.9430600214
 10
6740.9088596534
 20
4624.9182915045
 10
6726.2330858867
 20
4624.8991142127
 10
6711.2906086857
 20
4624.8864189237
 10
6696.613078453
 20
4624.8803640179
 10
6681.8874641926
 20
4624.8805103041
 10
6666.7916433791
 20
4624.8871431549
 10
6651.8620231737
 20
4624.9003247901
 10
6637.6282004779
 20
4624.9193429376
 10
6623.7510664856
 20
4624.9443539367
 10
6609.9472428847
 20
4624.9763356178
 10
6596.7225989596
 20
4625.0143971276
 10
6584.5121028143
 20
4625.057156775
 10
6573.0246555574
 20
4625.105313369
 10
6562.0442787516
 20
4625.1602800973
 10
6551.9932047983
 20
4625.2204461243
 10
6543.1886165011
 20
4625.2835337912
 10
6535.3914872521
 20
4625.3508791544
 10
6528.4802912517
 20
4625.4241179274
 10
6522.7429114031
 20
4625.5009418763
 10
6518.2592916137
 20
4625.580029574
 10
6515.0032524599
 20
4625.6614798906
 10
6512.9627822083
 20
4625.7470861543
 10
6512.2664668858
 20
4625.8335457303
 10
6512.2664668122
 20
4625.8335460667
  0
LWPOLYLINE
  5
AA
330
1F
100
AcDbEntity
  8
0
  6
Continuous
 62
     7
370
    25
100
AcDbPolyline
 90
        3
 70
   128
 43
0.0
 10
6867.0223870224
 20
4625.8756478365
 10
6867.0439964035
 20
4625.8894652295
 10
6866.9545052729
 20
4625.8291819409
  0
LINE
  5
AB
330
1F
100
AcDbEntity
  8
0
  6
Continuous
 62
     7
370
    25
100
AcDbLine
 10
6522.0354669861
 20
4637.9705148548
 30
0.0
 11
6857.1830972517
 21
4637.9705148548
 31
0.0
  0
ARC
  5
AC
330
1F
100
AcDbEntity
  8
0
  6
Continuous
 62
     7
370
    25
100
AcDbCircle
 10
6857.1829197015
 20
4627.9705812039
 30
0.0
 40
9.9999336524063
100
AcDbArc
 50
347.6180422576
 51
89.9989827056
  0
ARC
  5
AD
330
1F
100
AcDbEntity
  8
0
  6
Continuous
 62
     7
370
    25
100
AcDbCircle
 10
6522.0354669861
 20
4627.9705148548
 30
0.0
 40
10.00000000000028
100
AcDbArc
 50
90.0
 51
192.3390872783
  0
LINE
  5
AE
330
1F
100
AcDbEntity
  8
0
  6
Continuous
 62
     7
370
    25
100
AcDbLine
 10
6506.0612523581
 20
4237.9705148548
 30
0.0
 11
6506.0612523581
 21
5109.9705148548
 31
0.0
  0
LINE
  5
AF
330
1F
100
AcDbEntity
  8
0
  6
Continuous
 62
     7
370
    25
100
AcDbLine
 10
6873.1617574215
 20
4237.9705148548
 30
0.0
 11
6873.1617574215
 21
5109.9705148548
 31
0.0
  0
LINE
  5
B0
330
1F
100
AcDbEntity
  8
0
  6
Continuous
 62
     7
370
    25
100
AcDbLine
 10
6597.1115048898
 20
4237.9705148548
 30
0.0
 11
6506.0612523581
 21
4237.9705148548
 31
0.0
  0
LINE
  5
B1
330
1F
100
AcDbEntity
  8
0
  6
Continuous
 62
     7
370
    25
100
AcDbLine
 10
6873.1617574215
 20
4237.9705148548
 30
0.0
 11
6782.1115048898
 21
4237.9705148548
 31
0.0
  0
LINE
  5
B2
330
1F
100
AcDbEntity
  8
0
  6
Continuous
 62
     7
370
    25
100
AcDbLine
 10
6875.6366311556
 20
4237.9705148548
 30
0.0
 11
6875.6366311556
 21
5109.9705148548
 31
0.0
  0
LINE
  5
B3
330
1F
100
AcDbEntity
  8
0
  6
Continuous
 62
     7
370
    25
100
AcDbLine
 10
6875.6366311556
 20
4237.9705148548
 30
0.0
 11
6873.1617574215
 21
4237.9705148548
 31
0.0
  0
LINE
  5
B4
330
1F
100
AcDbEntity
  8
0
  6
Continuous
 62
     7
370
    25
100
AcDbLine
 10
6503.5863786239
 20
4237.9705148548
 30
0.0
 11
6503.5863786239
 21
5109.9705148548
 31
0.0
  0
LINE
  5
B5
330
1F
100
AcDbEntity
  8
0
  6
Continuous
 62
     7
370
    25
100
AcDbLine
 10
6506.0612523581
 20
4237.9705148548
 30
0.0
 11
6503.5863786239
 21
4237.9705148548
 31
0.0
  0
LINE
  5
B6
330
1F
100
AcDbEntity
  8
0
  6
Continuous
 62
     7
370
    25
100
AcDbLine
 10
6916.1800473847
 20
4237.9705148548
 30
0.0
 11
6916.1800473847
 21
5109.9705148548
 31
0.0
  0
LINE
  5
B7
330
1F
100
AcDbEntity
  8
0
  6
Continuous
 62
     7
370
    25
100
AcDbLine
 10
6916.1800473847
 20
4237.9705148548
 30
0.0
 11
6875.6366311556
 21
4237.9705148548
 31
0.0
  0
LINE
  5
B8
330
1F
100
AcDbEntity
  8
0
  6
Continuous
 62
     7
370
    25
100
AcDbLine
 10
6503.5863786239
 20
4237.9705148548
 30
0.0
 11
6463.0429623948
 21
4237.9705148548
 31
0.0
  0
LINE
  5
B9
330
1F
100
AcDbEntity
  8
0
  6
Continuous
 62
     7
370
    25
100
AcDbLine
 10
6463.0429623948
 20
4237.9705148548
 30
0.0
 11
6463.0429623948
 21
5109.9705148548
 31
0.0
  0
LINE
  5
BA
330
1F
100
AcDbEntity
  8
0
  6
Continuous
 62
     7
370
    25
100
AcDbLine
 10
6939.6115048898
 20
4237.9705148548
 30
0.0
 11
6939.6115048898
 21
5109.9705148548
 31
0.0
  0
LINE
  5
BB
330
1F
100
AcDbEntity
  8
0
  6
Continuous
 62
     7
370
    25
100
AcDbLine
 10
6939.6115048898
 20
4237.9705148548
 30
0.0
 11
6916.1800473847
 21
4237.9705148548
 31
0.0
  0
LINE
  5
BC
330
1F
100
AcDbEntity
  8
0
  6
Continuous
 62
     7
370
    25
100
AcDbLine
 10
6463.0429623948
 20
4237.9705148548
 30
0.0
 11
6439.6115048898
 21
4237.9705148548
 31
0.0
  0
LINE
  5
BD
330
1F
100
AcDbEntity
  8
0
  6
Continuous
 62
     7
370
    25
100
AcDbLine
 10
6439.6115048898
 20
4237.9705148548
 30
0.0
 11
6439.6115048898
 21
5109.9705148548
 31
0.0
  0
LINE
  5
BE
330
1F
100
AcDbEntity
  8
0
  6
Continuous
 62
     7
370
    25
100
AcDbLine
 10
6506.0612523581
 20
4239.4705148548
 30
0.0
 11
6506.0612523581
 21
4237.9705148548
 31
0.0
  0
LINE
  5
BF
330
1F
100
AcDbEntity
  8
0
  6
Continuous
 62
     7
370
    25
100
AcDbLine
 10
6596.7833798898
 20
4239.4705148548
 30
0.0
 11
6506.0612523581
 21
4239.4705148548
 31
0.0
  0
LINE
  5
C0
330
1F
100
AcDbEntity
  8
0
  6
Continuous
 62
     7
370
    25
100
AcDbLine
 10
6503.5863786239
 20
4239.4705148548
 30
0.0
 11
6503.5863786239
 21
4237.9705148548
 31
0.0
  0
LINE
  5
C1
330
1F
100
AcDbEntity
  8
0
  6
Continuous
 62
     7
370
    25
100
AcDbLine
 10
6506.0612523581
 20
4239.4705148548
 30
0.0
 11
6503.5863786239
 21
4239.4705148548
 31
0.0
  0
LINE
  5
C2
330
1F
100
AcDbEntity
  8
0
  6
Continuous
 62
     7
370
    25
100
AcDbLine
 10
6463.0429623948
 20
4239.4705148548
 30
0.0
 11
6463.0429623948
 21
4237.9705148548
 31
0.0
  0
LINE
  5
C3
330
1F
100
AcDbEntity
  8
0
  6
Continuous
 62
     7
370
    25
100
AcDbLine
 10
6503.5863786239
 20
4239.4705148548
 30
0.0
 11
6463.0429623948
 21
4239.4705148548
 31
0.0
  0
LINE
  5
C4
330
1F
100
AcDbEntity
  8
0
  6
Continuous
 62
     7
370
    25
100
AcDbLine
 10
6439.6115048898
 20
4239.4705148548
 30
0.0
 11
6439.6115048898
 21
4237.9705148548
 31
0.0
  0
LINE
  5
C5
330
1F
100
AcDbEntity
  8
0
  6
Continuous
 62
     7
370
    25
100
AcDbLine
 10
6463.0429623948
 20
4239.4705148548
 30
0.0
 11
6439.6115048898
 21
4239.4705148548
 31
0.0
  0
LINE
  5
C6
330
1F
100
AcDbEntity
  8
0
  6
Continuous
 62
     7
370
    25
100
AcDbLine
 10
6782.4396298898
 20
4239.4705148548
 30
0.0
 11
6873.1617574215
 21
4239.4705148548
 31
0.0
  0
LINE
  5
C7
330
1F
100
AcDbEntity
  8
0
  6
Continuous
 62
     7
370
    25
100
AcDbLine
 10
6873.1617574215
 20
4239.4705148548
 30
0.0
 11
6873.1617574215
 21
4237.9705148548
 31
0.0
  0
LINE
  5
C8
330
1F
100
AcDbEntity
  8
0
  6
Continuous
 62
     7
370
    25
100
AcDbLine
 10
6875.6366311556
 20
4239.4705148548
 30
0.0
 11
6875.6366311556
 21
4237.9705148548
 31
0.0
  0
LINE
  5
C9
330
1F
100
AcDbEntity
  8
0
  6
Continuous
 62
     7
370
    25
100
AcDbLine
 10
6873.1617574215
 20
4239.4705148548
 30
0.0
 11
6875.6366311556
 21
4239.4705148548
 31
0.0
  0
LINE
  5
CA
330
1F
100
AcDbEntity
  8
0
  6
Continuous
 62
     7
370
    25
100
AcDbLine
 10
6916.1800473847
 20
4239.4705148548
 30
0.0
 11
6916.1800473847
 21
4237.9705148548
 31
0.0
  0
LINE
  5
CB
330
1F
100
AcDbEntity
  8
0
  6
Continuous
 62
     7
370
    25
100
AcDbLine
 10
6875.6366311556
 20
4239.4705148548
 30
0.0
 11
6916.1800473847
 21
4239.4705148548
 31
0.0
  0
LINE
  5
CC
330
1F
100
AcDbEntity
  8
0
  6
Continuous
 62
     7
370
    25
100
AcDbLine
 10
6939.6115048898
 20
4239.4705148548
 30
0.0
 11
6939.6115048898
 21
4237.9705148548
 31
0.0
  0
LINE
  5
CD
330
1F
100
AcDbEntity
  8
0
  6
Continuous
 62
     7
370
    25
100
AcDbLine
 10
6916.1800473847
 20
4239.4705148548
 30
0.0
 11
6939.6115048898
 21
4239.4705148548
 31
0.0
  0
LINE
  5
CE
330
1F
100
AcDbEntity
  8
0
  6
Continuous
 62
     8
370
    25
100
AcDbLine
 10
6866.9545052729
 20
4625.8291819409
 30
0.0
 11
6866.950253391
 21
4625.8263177752
 31
0.0
  0
ARC
  5
CF
330
1F
100
AcDbEntity
  8
0
  6
Continuous
 62
     7
370
    25
100
AcDbCircle
 10
7390.571538612
 20
5111.9705148548
 30
0.0
 40
22.50000000000026
100
AcDbArc
 50
10.2403483212
 51
169.9112106481
  0
LINE
  5
D0
330
1F
100
AcDbEntity
  8
0
  6
Continuous
 62
     7
370
    25
100
AcDbLine
 10
7316.571538612
 20
4660.9705148548
 30
0.0
 11
7316.071538612
 21
4660.4705148548
 31
0.0
  0
LINE
  5
D1
330
1F
100
AcDbEntity
  8
0
  6
Continuous
 62
     7
370
    25
100
AcDbLine
 10
7316.071538612
 20
4645.4705148548
 30
0.0
 11
7316.571538612
 21
4644.9705148548
 31
0.0
  0
LINE
  5
D2
330
1F
100
AcDbEntity
  8
0
  6
Continuous
 62
     7
370
    25
100
AcDbLine
 10
7317.071538612
 20
4644.9705148548
 30
0.0
 11
7317.571538612
 21
4645.4705148548
 31
0.0
  0
LINE
  5
D3
330
1F
100
AcDbEntity
  8
0
  6
Continuous
 62
     7
370
    25
100
AcDbLine
 10
7317.571538612
 20
4660.4705148548
 30
0.0
 11
7317.071538612
 21
4660.9705148548
 31
0.0
  0
LINE
  5
D4
330
1F
100
AcDbEntity
  8
0
  6
Continuous
 62
     7
370
    25
100
AcDbLine
 10
7317.071538612
 20
4660.9705148548
 30
0.0
 11
7316.571538612
 21
4660.9705148548
 31
0.0
  0
LINE
  5
D5
330
1F
100
AcDbEntity
  8
0
  6
Continuous
 62
     7
370
    25
100
AcDbLine
 10
7316.571538612
 20
4644.9705148548
 30
0.0
 11
7317.071538612
 21
4644.9705148548
 31
0.0
  0
LINE
  5
D6
330
1F
100
AcDbEntity
  8
0
  6
Continuous
 62
     7
370
    25
100
AcDbLine
 10
7317.071538612
 20
4960.9705148548
 30
0.0
 11
7316.571538612
 21
4960.9705148548
 31
0.0
  0
LINE
  5
D7
330
1F
100
AcDbEntity
  8
0
  6
Continuous
 62
     7
370
    25
100
AcDbLine
 10
7316.571538612
 20
4944.9705148548
 30
0.0
 11
7317.071538612
 21
4944.9705148548
 31
0.0
  0
LINE
  5
D8
330
1F
100
AcDbEntity
  8
0
  6
Continuous
 62
     7
370
    25
100
AcDbLine
 10
7316.571538612
 20
4960.9705148548
 30
0.0
 11
7316.071538612
 21
4960.4705148548
 31
0.0
  0
LINE
  5
D9
330
1F
100
AcDbEntity
  8
0
  6
Continuous
 62
     7
370
    25
100
AcDbLine
 10
7316.071538612
 20
4945.4705148548
 30
0.0
 11
7316.571538612
 21
4944.9705148548
 31
0.0
  0
LINE
  5
DA
330
1F
100
AcDbEntity
  8
0
  6
Continuous
 62
     7
370
    25
100
AcDbLine
 10
7317.071538612
 20
4944.9705148548
 30
0.0
 11
7317.571538612
 21
4945.4705148548
 31
0.0
  0
LINE
  5
DB
330
1F
100
AcDbEntity
  8
0
  6
Continuous
 62
     7
370
    25
100
AcDbLine
 10
7317.571538612
 20
4960.4705148548
 30
0.0
 11
7317.071538612
 21
4960.9705148548
 31
0.0
  0
LINE
  5
DC
330
1F
100
AcDbEntity
  8
0
  6
Continuous
 62
     7
370
    25
100
AcDbLine
 10
7317.071538612
 20
4360.9705148548
 30
0.0
 11
7316.571538612
 21
4360.9705148548
 31
0.0
  0
LINE
  5
DD
330
1F
100
AcDbEntity
  8
0
  6
Continuous
 62
     7
370
    25
100
AcDbLine
 10
7316.571538612
 20
4344.9705148548
 30
0.0
 11
7317.071538612
 21
4344.9705148548
 31
0.0
  0
LINE
  5
DE
330
1F
100
AcDbEntity
  8
0
  6
Continuous
 62
     7
370
    25
100
AcDbLine
 10
7317.071538612
 20
4344.9705148548
 30
0.0
 11
7317.571538612
 21
4345.4705148548
 31
0.0
  0
LINE
  5
DF
330
1F
100
AcDbEntity
  8
0
  6
Continuous
 62
     7
370
    25
100
AcDbLine
 10
7317.571538612
 20
4360.4705148548
 30
0.0
 11
7317.071538612
 21
4360.9705148548
 31
0.0
  0
LINE
  5
E0
330
1F
100
AcDbEntity
  8
0
  6
Continuous
 62
     7
370
    25
100
AcDbLine
 10
7316.571538612
 20
4360.9705148548
 30
0.0
 11
7316.071538612
 21
4360.4705148548
 31
0.0
  0
LINE
  5
E1
330
1F
100
AcDbEntity
  8
0
  6
Continuous
 62
     7
370
    25
100
AcDbLine
 10
7316.071538612
 20
4345.4705148548
 30
0.0
 11
7316.571538612
 21
4344.9705148548
 31
0.0
  0
LWPOLYLINE
  5
E2
330
1F
100
AcDbEntity
  8
0
  6
Continuous
 62
     7
370
    25
100
AcDbPolyline
 90
        3
 70
   128
 43
0.0
 10
8037.5716345602
 20
4237.9705148548
 10
8101.0285527178
 20
4433.2216917454
 10
8163.3032182583
 20
4624.8351859581
  0
ARC
  5
E3
330
1F
100
AcDbEntity
  8
0
  6
Continuous
 62
     7
370
    25
100
AcDbCircle
 10
8153.8073303329
 20
4627.9705148548
 30
0.0
 40
10.00000000000125
100
AcDbArc
 50
341.5899257036
 51
90.0001488693
  0
LINE
  5
E4
330
1F
100
AcDbEntity
  8
0
  6
Continuous
 62
     7
370
    25
100
AcDbLine
 10
7316.571538612
 20
4652.9705148548
 30
0.0
 11
7316.571538612
 21
4644.9705148548
 31
0.0
  0
LINE
  5
E5
330
1F
100
AcDbEntity
  8
0
  6
Continuous
 62
     7
370
    25
100
AcDbLine
 10
7316.571538612
 20
4660.9705148548
 30
0.0
 11
7316.571538612
 21
4652.9705148548
 31
0.0
  0
LINE
  5
E6
330
1F
100
AcDbEntity
  8
0
  6
Continuous
 62
     7
370
    25
100
AcDbLine
 10
7316.071538612
 20
4652.9705148548
 30
0.0
 11
7316.071538612
 21
4660.4705148548
 31
0.0
  0
LINE
  5
E7
330
1F
100
AcDbEntity
  8
0
  6
Continuous
 62
     7
370
    25
100
AcDbLine
 10
7316.071538612
 20
4645.4705148548
 30
0.0
 11
7316.071538612
 21
4652.9705148548
 31
0.0
  0
LINE
  5
E8
330
1F
100
AcDbEntity
  8
0
  6
Continuous
 62
     7
370
    25
100
AcDbLine
 10
7317.071538612
 20
4644.9705148548
 30
0.0
 11
7317.071538612
 21
4660.9705148548
 31
0.0
  0
LINE
  5
E9
330
1F
100
AcDbEntity
  8
0
  6
Continuous
 62
     7
370
    25
100
AcDbLine
 10
7317.071538612
 20
4944.9705148548
 30
0.0
 11
7317.071538612
 21
4960.9705148548
 31
0.0
  0
LINE
  5
EA
330
1F
100
AcDbEntity
  8
0
  6
Continuous
 62
     7
370
    25
100
AcDbLine
 10
7316.571538612
 20
4952.9705148548
 30
0.0
 11
7316.571538612
 21
4944.9705148548
 31
0.0
  0
LINE
  5
EB
330
1F
100
AcDbEntity
  8
0
  6
Continuous
 62
     7
370
    25
100
AcDbLine
 10
7316.571538612
 20
4960.9705148548
 30
0.0
 11
7316.571538612
 21
4952.9705148548
 31
0.0
  0
LINE
  5
EC
330
1F
100
AcDbEntity
  8
0
  6
Continuous
 62
     7
370
    25
100
AcDbLine
 10
7316.071538612
 20
4952.9705148548
 30
0.0
 11
7316.071538612
 21
4960.4705148548
 31
0.0
  0
LINE
  5
ED
330
1F
100
AcDbEntity
  8
0
  6
Continuous
 62
     7
370
    25
100
AcDbLine
 10
7316.071538612
 20
4945.4705148548
 30
0.0
 11
7316.071538612
 21
4952.9705148548
 31
0.0
  0
LINE
  5
EE
330
1F
100
AcDbEntity
  8
0
  6
Continuous
 62
     7
370
    25
100
AcDbLine
 10
7317.071538612
 20
4344.9705148548
 30
0.0
 11
7317.071538612
 21
4360.9705148548
 31
0.0
  0
LINE
  5
EF
330
1F
100
AcDbEntity
  8
0
  6
Continuous
 62
     7
370
    25
100
AcDbLine
 10
7316.571538612
 20
4352.9705148548
 30
0.0
 11
7316.571538612
 21
4344.9705148548
 31
0.0
  0
LINE
  5
F0
330
1F
100
AcDbEntity
  8
0
  6
Continuous
 62
     7
370
    25
100
AcDbLine
 10
7316.571538612
 20
4360.9705148548
 30
0.0
 11
7316.571538612
 21
4352.9705148548
 31
0.0
  0
LINE
  5
F1
330
1F
100
AcDbEntity
  8
0
  6
Continuous
 62
     7
370
    25
100
AcDbLine
 10
7316.071538612
 20
4352.9705148548
 30
0.0
 11
7316.071538612
 21
4360.4705148548
 31
0.0
  0
LINE
  5
F2
330
1F
100
AcDbEntity
  8
0
  6
Continuous
 62
     7
370
    25
100
AcDbLine
 10
7316.071538612
 20
4345.4705148548
 30
0.0
 11
7316.071538612
 21
4352.9705148548
 31
0.0
  0
LINE
  5
F3
330
1F
100
AcDbEntity
  8
0
  6
Continuous
 62
     7
370
    25
100
AcDbLine
 10
7321.071538612
 20
5109.9705148548
 30
0.0
 11
7619.4344536221
 21
5109.9705148548
 31
0.0
  0
LINE
  5
F4
330
1F
100
AcDbEntity
  8
0
  6
Continuous
 62
     7
370
    25
100
AcDbLine
 10
7321.071538612
 20
5112.4705148548
 30
0.0
 11
7321.071538612
 21
5109.9705148548
 31
0.0
  0
LINE
  5
F5
330
1F
100
AcDbEntity
  8
0
  6
Continuous
 62
     7
370
    25
100
AcDbLine
 10
7619.4344536221
 20
5112.4705148548
 30
0.0
 11
7321.071538612
 21
5112.4705148548
 31
0.0
  0
LINE
  5
F6
330
1F
100
AcDbEntity
  8
0
  6
Continuous
 62
     7
370
    25
100
AcDbLine
 10
7619.4344536221
 20
5109.9705148548
 30
0.0
 11
7619.4344536221
 21
5112.4705148548
 31
0.0
  0
LINE
  5
F7
330
1F
100
AcDbEntity
  8
0
  6
Continuous
 62
     7
370
    25
100
AcDbLine
 10
7619.4344536221
 20
5112.4705148548
 30
0.0
 11
7619.4344536221
 21
5115.9705148548
 31
0.0
  0
LINE
  5
F8
330
1F
100
AcDbEntity
  8
0
  6
Continuous
 62
     7
370
    25
100
AcDbLine
 10
7319.571538612
 20
5115.9705148548
 30
0.0
 11
7321.071538612
 21
5112.4705148548
 31
0.0
  0
LINE
  5
F9
330
1F
100
AcDbEntity
  8
0
  6
Continuous
 62
     7
370
    25
100
AcDbLine
 10
7319.571538612
 20
5115.9705148548
 30
0.0
 11
7619.4344536221
 21
5115.9705148548
 31
0.0
  0
LINE
  5
FA
330
1F
100
AcDbEntity
  8
0
  6
Continuous
 62
     7
370
    25
100
AcDbLine
 10
7317.571538612
 20
5109.9705148548
 30
0.0
 11
7317.571538612
 21
5113.9705148548
 31
0.0
  0
LINE
  5
FB
330
1F
100
AcDbEntity
  8
0
  6
Continuous
 62
     7
370
    25
100
AcDbLine
 10
7321.071538612
 20
5112.4705148548
 30
0.0
 11
7317.571538612
 21
5113.9705148548
 31
0.0
  0
LINE
  5
FC
330
1F
100
AcDbEntity
  8
0
  6
Continuous
 62
     7
370
    25
100
AcDbLine
 10
7319.071538612
 20
5109.9705148548
 30
0.0
 11
7318.1650802861
 21
5109.9705148548
 31
0.0
  0
ARC
  5
FD
330
1F
100
AcDbEntity
  8
0
  6
Continuous
 62
     7
370
    25
100
AcDbCircle
 10
7319.571538612
 20
5113.9705148548
 30
0.0
 40
2.000000000000909
100
AcDbArc
 50
90.0
 51
180.0
  0
LINE
  5
FE
330
1F
100
AcDbEntity
  8
0
  6
Continuous
 62
     7
370
    25
100
AcDbLine
 10
7676.0029961171
 20
5112.4705148548
 30
0.0
 11
7619.4344536221
 21
5112.4705148548
 31
0.0
  0
LINE
  5
FF
330
1F
100
AcDbEntity
  8
0
  6
Continuous
 62
     7
370
    25
100
AcDbLine
 10
7619.4344536221
 20
5115.9705148548
 30
0.0
 11
7673.5281223829
 21
5115.9705148548
 31
0.0
  0
ARC
  5
100
330
1F
100
AcDbEntity
  8
0
  6
Continuous
 62
     7
370
    25
100
AcDbCircle
 10
7672.9094039494
 20
5112.9080148548
 30
0.0
 40
3.124374937488112
100
AcDbArc
 50
351.9505330245
 51
78.578246341
  0
LINE
  5
101
330
1F
100
AcDbEntity
  8
0
  6
Continuous
 62
     7
370
    25
100
AcDbLine
 10
7676.0029961171
 20
5112.4705148548
 30
0.0
 11
7676.0029961171
 21
5109.9705148548
 31
0.0
  0
LINE
  5
102
330
1F
100
AcDbEntity
  8
0
  6
Continuous
 62
     7
370
    25
100
AcDbLine
 10
7676.0029961171
 20
5109.9705148548
 30
0.0
 11
7619.4344536221
 21
5109.9705148548
 31
0.0
  0
LINE
  5
103
330
1F
100
AcDbEntity
  8
0
  6
Continuous
 62
     7
370
    25
100
AcDbLine
 10
7716.5464123462
 20
5112.4705148548
 30
0.0
 11
7676.0029961171
 21
5112.4705148548
 31
0.0
  0
ARC
  5
104
330
1F
100
AcDbEntity
  8
0
  6
Continuous
 62
     7
370
    25
100
AcDbCircle
 10
7713.4528201785
 20
5112.9080148548
 30
0.0
 40
3.124374937489012
100
AcDbArc
 50
351.9505330245
 51
78.578246341
  0
LINE
  5
105
330
1F
100
AcDbEntity
  8
0
  6
Continuous
 62
     7
370
    25
100
AcDbLine
 10
7673.5281223829
 20
5115.9705148548
 30
0.0
 11
7714.071538612
 21
5115.9705148548
 31
0.0
  0
LINE
  5
106
330
1F
100
AcDbEntity
  8
0
  6
Continuous
 62
     7
370
    25
100
AcDbLine
 10
7716.5464123462
 20
5109.9705148548
 30
0.0
 11
7716.5464123462
 21
5112.4705148548
 31
0.0
  0
LINE
  5
107
330
1F
100
AcDbEntity
  8
0
  6
Continuous
 62
     7
370
    25
100
AcDbLine
 10
7676.0029961171
 20
5109.9705148548
 30
0.0
 11
7716.5464123462
 21
5109.9705148548
 31
0.0
  0
ARC
  5
108
330
1F
100
AcDbEntity
  8
0
  6
Continuous
 62
     7
370
    25
100
AcDbCircle
 10
7714.071538612
 20
5112.4705148548
 30
0.0
 40
3.5
100
AcDbArc
 50
0.0
 51
90.0
  0
LINE
  5
109
330
1F
100
AcDbEntity
  8
0
  6
Continuous
 62
     7
370
    25
100
AcDbLine
 10
7716.5464123462
 20
5112.4705148548
 30
0.0
 11
7717.571538612
 21
5112.4705148548
 31
0.0
  0
LINE
  5
10A
330
1F
100
AcDbEntity
  8
0
  6
Continuous
 62
     7
370
    25
100
AcDbLine
 10
7717.571538612
 20
5112.4705148548
 30
0.0
 11
7717.571538612
 21
5109.9705148548
 31
0.0
  0
LINE
  5
10B
330
1F
100
AcDbEntity
  8
0
  6
Continuous
 62
     7
370
    25
100
AcDbLine
 10
7717.571538612
 20
5109.9705148548
 30
0.0
 11
7716.5464123462
 21
5109.9705148548
 31
0.0
  0
LINE
  5
10C
330
1F
100
AcDbEntity
  8
0
  6
Continuous
 62
     7
370
    25
100
AcDbLine
 10
7619.4344536221
 20
4237.9705148548
 30
0.0
 11
7619.4344536221
 21
5109.9705148548
 31
0.0
  0
LINE
  5
10D
330
1F
100
AcDbEntity
  8
0
  6
Continuous
 62
     7
370
    25
100
AcDbLine
 10
7619.4344536221
 20
5109.9705148548
 30
0.0
 11
7319.071538612
 21
5109.9705148548
 31
0.0
  0
LINE
  5
10E
330
1F
100
AcDbEntity
  8
0
  6
Continuous
 62
     7
370
    25
100
AcDbLine
 10
7619.4344536221
 20
4237.9705148548
 30
0.0
 11
7319.071538612
 21
4237.9705148548
 31
0.0
  0
LINE
  5
10F
330
1F
100
AcDbEntity
  8
0
  6
Continuous
 62
     7
370
    25
100
AcDbLine
 10
7319.071538612
 20
4237.9705148548
 30
0.0
 11
7319.071538612
 21
5109.9705148548
 31
0.0
  0
LINE
  5
110
330
1F
100
AcDbEntity
  8
0
  6
Continuous
 62
     7
370
    25
100
AcDbLine
 10
7676.0029961171
 20
4237.9705148548
 30
0.0
 11
7676.0029961171
 21
5109.9705148548
 31
0.0
  0
LINE
  5
111
330
1F
100
AcDbEntity
  8
0
  6
Continuous
 62
     7
370
    25
100
AcDbLine
 10
7676.0029961171
 20
4237.9705148548
 30
0.0
 11
7619.4344536221
 21
4237.9705148548
 31
0.0
  0
LINE
  5
112
330
1F
100
AcDbEntity
  8
0
  6
Continuous
 62
     7
370
    25
100
AcDbLine
 10
7317.571538612
 20
4237.9705148548
 30
0.0
 11
7319.071538612
 21
4237.9705148548
 31
0.0
  0
LINE
  5
113
330
1F
100
AcDbEntity
  8
0
  6
Continuous
 62
     7
370
    25
100
AcDbLine
 10
7317.571538612
 20
4237.9705148548
 30
0.0
 11
7317.571538612
 21
5109.9705148548
 31
0.0
  0
LINE
  5
114
330
1F
100
AcDbEntity
  8
0
  6
Continuous
 62
     7
370
    25
100
AcDbLine
 10
7317.571538612
 20
5109.9705148548
 30
0.0
 11
7318.1650802861
 21
5109.9705148548
 31
0.0
  0
LINE
  5
115
330
1F
100
AcDbEntity
  8
0
  6
Continuous
 62
     7
370
    25
100
AcDbLine
 10
7716.5464123462
 20
4237.9705148548
 30
0.0
 11
7716.5464123462
 21
5109.9705148548
 31
0.0
  0
LINE
  5
116
330
1F
100
AcDbEntity
  8
0
  6
Continuous
 62
     7
370
    25
100
AcDbLine
 10
7716.5464123462
 20
4237.9705148548
 30
0.0
 11
7676.0029961171
 21
4237.9705148548
 31
0.0
  0
LINE
  5
117
330
1F
100
AcDbEntity
  8
0
  6
Continuous
 62
     7
370
    25
100
AcDbLine
 10
8037.5714712479
 20
4237.9705148548
 30
0.0
 11
7945.071538612
 21
4237.9705148548
 31
0.0
  0
LINE
  5
118
330
1F
100
AcDbEntity
  8
0
  6
Continuous
 62
     7
370
    25
100
AcDbLine
 10
7945.071538612
 20
4237.9705148548
 30
0.0
 11
7986.2819856783
 21
4625.8335460667
 31
0.0
  0
LINE
  5
119
330
1F
100
AcDbEntity
  8
0
  6
Continuous
 62
     7
370
    25
100
AcDbLine
 10
7986.2819856783
 20
4637.9705148548
 30
0.0
 11
8153.6552264492
 21
4637.9705148548
 31
0.0
  0
LINE
  5
11A
330
1F
100
AcDbEntity
  8
0
  6
Continuous
 62
     7
370
    25
100
AcDbLine
 10
7986.2819856783
 20
4637.9705148548
 30
0.0
 11
7986.2819856783
 21
4625.8335460667
 31
0.0
  0
LINE
  5
11B
330
1F
100
AcDbEntity
  8
0
  6
Continuous
 62
     7
370
    25
100
AcDbLine
 10
7717.571538612
 20
4237.9705148548
 30
0.0
 11
7717.571538612
 21
5109.9705148548
 31
0.0
  0
LINE
  5
11C
330
1F
100
AcDbEntity
  8
0
  6
Continuous
 62
     7
370
    25
100
AcDbLine
 10
7717.571538612
 20
4237.9705148548
 30
0.0
 11
7716.5464123462
 21
4237.9705148548
 31
0.0
  0
LINE
  5
11D
330
1F
100
AcDbEntity
  8
0
  6
Continuous
 62
     7
370
    25
100
AcDbLine
 10
7717.571538612
 20
4637.9705148548
 30
0.0
 11
7986.2819856783
 21
4637.9705148548
 31
0.0
  0
LINE
  5
11E
330
1F
100
AcDbEntity
  8
0
  6
Continuous
 62
     7
370
    25
100
AcDbLine
 10
7986.2819856783
 20
4625.8335460667
 30
0.0
 11
7717.571538612
 21
4625.8335460667
 31
0.0
  0
LINE
  5
11F
330
1F
100
AcDbEntity
  8
0
  6
Continuous
 62
     7
370
    25
100
AcDbLine
 10
7945.071538612
 20
4237.9705148548
 30
0.0
 11
7717.571538612
 21
4237.9705148548
 31
0.0
  0
LINE
  5
120
330
1F
100
AcDbEntity
  8
0
  6
Continuous
 62
     7
370
    25
100
AcDbLine
 10
7577.571538612
 20
4239.4705148548
 30
0.0
 11
7577.571538612
 21
4237.9705148548
 31
0.0
  0
LINE
  5
121
330
1F
100
AcDbEntity
  8
0
  6
Continuous
 62
     7
370
    25
100
AcDbLine
 10
7619.4344536221
 20
4239.4705148548
 30
0.0
 11
7577.571538612
 21
4239.4705148548
 31
0.0
  0
LINE
  5
122
330
1F
100
AcDbEntity
  8
0
  6
Continuous
 62
     7
370
    25
100
AcDbLine
 10
7619.4344536221
 20
4239.4705148548
 30
0.0
 11
7619.4344536221
 21
4237.9705148548
 31
0.0
  0
LINE
  5
123
330
1F
100
AcDbEntity
  8
0
  6
Continuous
 62
     7
370
    25
100
AcDbLine
 10
7619.4344536221
 20
4237.9705148548
 30
0.0
 11
7577.571538612
 21
4237.9705148548
 31
0.0
  0
LINE
  5
124
330
1F
100
AcDbEntity
  8
0
  6
Continuous
 62
     7
370
    25
100
AcDbLine
 10
7676.0029961171
 20
4239.4705148548
 30
0.0
 11
7676.0029961171
 21
4237.9705148548
 31
0.0
  0
LINE
  5
125
330
1F
100
AcDbEntity
  8
0
  6
Continuous
 62
     7
370
    25
100
AcDbLine
 10
7676.0029961171
 20
4239.4705148548
 30
0.0
 11
7619.4344536221
 21
4239.4705148548
 31
0.0
  0
LINE
  5
126
330
1F
100
AcDbEntity
  8
0
  6
Continuous
 62
     7
370
    25
100
AcDbLine
 10
7716.5464123462
 20
4239.4705148548
 30
0.0
 11
7716.5464123462
 21
4237.9705148548
 31
0.0
  0
LINE
  5
127
330
1F
100
AcDbEntity
  8
0
  6
Continuous
 62
     7
370
    25
100
AcDbLine
 10
7716.5464123462
 20
4239.4705148548
 30
0.0
 11
7676.0029961171
 21
4239.4705148548
 31
0.0
  0
LINE
  5
128
330
1F
100
AcDbEntity
  8
0
  6
Continuous
 62
     7
370
    25
100
AcDbLine
 10
7717.571538612
 20
4239.4705148548
 30
0.0
 11
7717.571538612
 21
4237.9705148548
 31
0.0
  0
LINE
  5
129
330
1F
100
AcDbEntity
  8
0
  6
Continuous
 62
     7
370
    25
100
AcDbLine
 10
7717.571538612
 20
4239.4705148548
 30
0.0
 11
7716.5464123462
 21
4239.4705148548
 31
0.0
  0
LWPOLYLINE
  5
12A
330
1F
100
AcDbEntity
  8
0
  6
Continuous
 62
     8
370
    25
100
AcDbPolyline
 90
       22
 70
   128
 43
0.0
 10
8163.1639949356
 20
4624.880433755
 10
8163.1488943683
 20
4624.8805103041
 10
8161.8421340178
 20
4624.8871431549
 10
8159.2547942674
 20
4624.9003247901
 10
8155.528821672
 20
4624.9193429376
 10
8150.6389538327
 20
4624.9443539367
 10
8144.4224909939
 20
4624.9763356178
 10
8137.0534804703
 20
4625.0143971276
 10
8128.8302881403
 20
4625.057156775
 10
8119.6239422364
 20
4625.105313369
 10
8109.1885759198
 20
4625.1602800973
 10
8097.8554589451
 20
4625.2204461243
 10
8086.0579965668
 20
4625.2835337912
 10
8073.571908381
 20
4625.3508791544
 10
8060.0929888076
 20
4625.4241179274
 10
8046.0742471012
 20
4625.5009418763
 10
8031.7402831729
 20
4625.580029574
 10
8017.0787070684
 20
4625.6614798906
 10
8001.7400969238
 20
4625.7470861543
 10
7986.2820456773
 20
4625.8335457303
 10
7986.2819856783
 20
4625.8335460667
 10
7986.2819856783
 20
4625.8335460667
  0
LINE
  5
12B
330
1F
100
AcDbEntity
  8
0
  6
Continuous
 62
     7
370
    25
100
AcDbLine
 10
6487.6115048898
 20
3839.5390383111
 30
0.0
 11
6487.6115048898
 21
3840.0390383111
 31
0.0
  0
LINE
  5
12C
330
1F
100
AcDbEntity
  8
0
  6
Continuous
 62
     7
370
    25
100
AcDbLine
 10
6471.6115048898
 20
3840.0390383111
 30
0.0
 11
6471.6115048898
 21
3839.5390383111
 31
0.0
  0
LINE
  5
12D
330
1F
100
AcDbEntity
  8
0
  6
Continuous
 62
     7
370
    25
100
AcDbLine
 10
6471.6115048898
 20
3839.5390383111
 30
0.0
 11
6472.1115048898
 21
3839.0390383111
 31
0.0
  0
LINE
  5
12E
330
1F
100
AcDbEntity
  8
0
  6
Continuous
 62
     7
370
    25
100
AcDbLine
 10
6487.1115048898
 20
3839.0390383111
 30
0.0
 11
6487.6115048898
 21
3839.5390383111
 31
0.0
  0
LINE
  5
12F
330
1F
100
AcDbEntity
  8
0
  6
Continuous
 62
     7
370
    25
100
AcDbLine
 10
6487.6115048898
 20
3840.0390383111
 30
0.0
 11
6487.1115048898
 21
3840.5390383111
 31
0.0
  0
LINE
  5
130
330
1F
100
AcDbEntity
  8
0
  6
Continuous
 62
     7
370
    25
100
AcDbLine
 10
6472.1115048898
 20
3840.5390383111
 30
0.0
 11
6471.6115048898
 21
3840.0390383111
 31
0.0
  0
LINE
  5
131
330
1F
100
AcDbEntity
  8
0
  6
Continuous
 62
     7
370
    25
100
AcDbLine
 10
6907.6115048898
 20
3840.0390383111
 30
0.0
 11
6907.1115048898
 21
3840.5390383111
 31
0.0
  0
LINE
  5
132
330
1F
100
AcDbEntity
  8
0
  6
Continuous
 62
     7
370
    25
100
AcDbLine
 10
6892.1115048898
 20
3840.5390383111
 30
0.0
 11
6891.6115048898
 21
3840.0390383111
 31
0.0
  0
LINE
  5
133
330
1F
100
AcDbEntity
  8
0
  6
Continuous
 62
     7
370
    25
100
AcDbLine
 10
6891.6115048898
 20
3839.5390383111
 30
0.0
 11
6892.1115048898
 21
3839.0390383111
 31
0.0
  0
LINE
  5
134
330
1F
100
AcDbEntity
  8
0
  6
Continuous
 62
     7
370
    25
100
AcDbLine
 10
6907.1115048898
 20
3839.0390383111
 30
0.0
 11
6907.6115048898
 21
3839.5390383111
 31
0.0
  0
LINE
  5
135
330
1F
100
AcDbEntity
  8
0
  6
Continuous
 62
     7
370
    25
100
AcDbLine
 10
6907.6115048898
 20
3839.5390383111
 30
0.0
 11
6907.6115048898
 21
3840.0390383111
 31
0.0
  0
LINE
  5
136
330
1F
100
AcDbEntity
  8
0
  6
Continuous
 62
     7
370
    25
100
AcDbLine
 10
6891.6115048898
 20
3840.0390383111
 30
0.0
 11
6891.6115048898
 21
3839.5390383111
 31
0.0
  0
LINE
  5
137
330
1F
100
AcDbEntity
  8
0
  6
Continuous
 62
     7
370
    25
100
AcDbLine
 10
6680.1582697912
 20
3635.0871761272
 30
0.0
 11
6680.4777645261
 21
3635.3571115153
 31
0.0
  0
LINE
  5
138
330
1F
100
AcDbEntity
  8
0
  6
Continuous
 62
     7
370
    25
100
AcDbLine
 10
6685.643042062
 20
3638.3070430307
 30
0.0
 11
6687.5624425228
 21
3638.7073392424
 31
0.0
  0
LINE
  5
139
330
1F
100
AcDbEntity
  8
0
  6
Continuous
 62
     7
370
    25
100
AcDbLine
 10
6692.7363168242
 20
3638.5780840817
 30
0.0
 11
6693.569703375
 21
3638.3276221339
 31
0.0
  0
LINE
  5
13A
330
1F
100
AcDbEntity
  8
0
  6
Continuous
 62
     7
370
    25
100
AcDbLine
 10
6512.0354669861
 20
3439.0390383111
 30
0.0
 11
6512.0354669861
 21
3170.3285912448
 31
0.0
  0
LWPOLYLINE
  5
13B
330
1F
100
AcDbEntity
  8
0
  6
Continuous
 62
     7
370
    25
100
AcDbPolyline
 90
        6
 70
   128
 43
0.0
 10
6867.1831067306
 20
3169.0362882698
 10
6867.2379238873
 20
3171.6675466389
 10
6867.2341096435
 20
3180.4934407115
 10
6867.1875427934
 20
3192.7466921038
 10
6867.1875427934
 20
3215.4118387751
 10
6867.1875427934
 20
3439.0390383111
  0
LWPOLYLINE
  5
13C
330
1F
100
AcDbEntity
  8
0
  6
Continuous
 62
     7
370
    25
100
AcDbPolyline
 90
       77
 70
   128
 43
0.0
 10
6512.089583359
 20
3170.3284342973
 10
6512.1001125507
 20
3168.7677882758
 10
6512.3290224097
 20
3161.2265112461
 10
6512.7616226174
 20
3154.469099771
 10
6513.4496164851
 20
3147.9772283641
 10
6514.4391911832
 20
3141.2468557292
 10
6515.8173285508
 20
3133.9394883347
 10
6517.5099027542
 20
3126.6560904378
 10
6519.5139969914
 20
3119.4203183722
 10
6521.8244996208
 20
3112.2586789421
 10
6524.4339741655
 20
3105.1991197774
 10
6527.3322412241
 20
3098.2709410458
 10
6530.5085688219
 20
3091.4992536455
 10
6533.9529243129
 20
3084.9038573611
 10
6537.6655737793
 20
3078.4765047408
 10
6541.6615940156
 20
3072.1848449417
 10
6545.9412295222
 20
3066.0315655806
 10
6550.4906878877
 20
3060.0411567578
 10
6555.2942469982
 20
3054.2377349166
 10
6560.3316865408
 20
3048.6475803359
 10
6565.5827538966
 20
3043.2934340415
 10
6571.0270649049
 20
3038.1952505261
 10
6576.658860205
 20
3033.3615318309
 10
6582.4142924172
 20
3028.8372412805
 10
6588.3969401305
 20
3024.5309792878
 10
6594.5995194614
 20
3020.4510103975
 10
6601.0080411892
 20
3016.609803504
 10
6607.6070329434
 20
3013.0195867717
 10
6614.379588485
 20
3009.6921690721
 10
6621.3074901298
 20
3006.6387408832
 10
6628.3713768493
 20
3003.869682153
 10
6635.550953866
 20
3001.394385456
 10
6642.8226655009
 20
2999.2218126453
 10
6650.1646247118
 20
2997.3587194878
 10
6657.5553744077
 20
2995.8103306574
 10
6664.9737244395
 20
2994.5804783781
 10
6672.3990170441
 20
2993.6716185768
 10
6679.8113660739
 20
2993.0848860294
 10
6687.1918615724
 20
2992.820184349
 10
6694.5137877578
 20
2992.8724882971
 10
6701.8821356574
 20
2993.2342885839
 10
6709.3175604717
 20
2993.9121499501
 10
6716.7516780326
 20
2994.9052751865
 10
6724.1588825116
 20
2996.2124936551
 10
6731.5130019719
 20
2997.8309484863
 10
6738.7841396436
 20
2999.7550364585
 10
6745.9462000707
 20
3001.9779704533
 10
6752.9745624193
 20
3004.4915807829
 10
6759.857314601
 20
3007.2884827532
 10
6766.6344366293
 20
3010.3812429997
 10
6773.3033702767
 20
3013.7698794651
 10
6779.8435887896
 20
3017.4461599686
 10
6786.2346858919
 20
3021.400456125
 10
6792.4559310976
 20
3025.6213221112
 10
6798.4861041129
 20
3030.0950511745
 10
6804.3070354217
 20
3034.8081807647
 10
6809.900289104
 20
3039.7444680834
 10
6815.2706265551
 20
3044.9029335335
 10
6820.4394537228
 20
3050.3036789885
 10
6825.3856678858
 20
3055.9274191232
 10
6830.0969460456
 20
3061.7617206104
 10
6834.561497667
 20
3067.7933705009
 10
6838.7675281551
 20
3074.0074584571
 10
6842.7047416897
 20
3080.3893552955
 10
6846.3638906904
 20
3086.9243095466
 10
6849.7316752239
 20
3093.5830107547
 10
6852.826563435
 20
3100.3987177216
 10
6855.6312691392
 20
3107.3382220267
 10
6858.1402603426
 20
3114.3885921758
 10
6860.349544448
 20
3121.5391908931
 10
6862.2555073418
 20
3128.7792636999
 10
6863.8548490198
 20
3136.0975965093
 10
6865.1447457508
 20
3143.4830276171
 10
6866.0217297095
 20
3150.0446102435
 10
6866.6518763039
 20
3157.1348227317
 10
6866.9925644148
 20
3163.961121688
 10
6867.0996154811
 20
3169.0380231573
  0
CIRCLE
  5
13D
330
1F
100
AcDbEntity
  8
0
  6
Continuous
 62
     7
370
    25
100
AcDbCircle
 10
6539.6115048898
 20
3766.0390383111
 30
0.0
 40
22.4999999999993
  0
LWPOLYLINE
  5
13E
330
1F
100
AcDbEntity
  8
0
  6
Continuous
 62
     7
370
    25
100
AcDbPolyline
 90
       21
 70
   128
 43
0.0
 10
6548.8610564503
 20
3756.7894867506
 10
6549.7589546832
 20
3757.506521077
 10
6550.7498242877
 20
3757.9725031811
 10
6551.7366720429
 20
3758.1418194879
 10
6552.6228984149
 20
3757.9978961376
 10
6553.3217533916
 20
3757.5548213505
 10
6553.7648281788
 20
3756.8559663737
 10
6553.9087515291
 20
3755.9697400017
 10
6553.7394352223
 20
3754.9828922465
 10
6553.2734531182
 20
3753.9920226421
 10
6552.5564187918
 20
3753.0941244091
 10
6551.6585205588
 20
3752.3770900827
 10
6550.6676509544
 20
3751.9111079785
 10
6549.6808031991
 20
3751.7417916717
 10
6548.7945768271
 20
3751.8857150221
 10
6548.0957218504
 20
3752.3287898092
 10
6547.6526470632
 20
3753.027644786
 10
6547.5087237129
 20
3753.9138711579
 10
6547.6780400197
 20
3754.9007189132
 10
6548.1440221238
 20
3755.8915885176
 10
6548.8610564503
 20
3756.7894867506
  0
LWPOLYLINE
  5
13F
330
1F
100
AcDbEntity
  8
0
  6
Continuous
 62
     7
370
    25
100
AcDbPolyline
 90
       19
 70
   128
 43
0.0
 10
6551.8610564503
 20
3753.7894867506
 10
6552.4961296694
 20
3754.6054821074
 10
6552.873681548
 20
3755.5039785189
 10
6552.9481737573
 20
3756.3766040577
 10
6552.7106214377
 20
3757.118107205
 10
6552.1896769047
 20
3757.639051738
 10
6551.4481737573
 20
3757.8766040577
 10
6550.5755482186
 20
3757.8021118483
 10
6549.677051807
 20
3757.4245599697
 10
6548.8610564503
 20
3756.7894867506
 10
6548.2259832311
 20
3755.9734913938
 10
6547.8484313526
 20
3755.0749949823
 10
6547.7739391432
 20
3754.2023694435
 10
6548.0114914628
 20
3753.4608662961
 10
6548.5324359958
 20
3752.9399217631
 10
6549.2739391432
 20
3752.7023694435
 10
6550.1465646819
 20
3752.7768616529
 10
6551.0450610935
 20
3753.1544135315
 10
6551.8610564503
 20
3753.7894867506
  0
LINE
  5
140
330
1F
100
AcDbEntity
  8
0
  6
Continuous
 62
     7
370
    25
100
AcDbLine
 10
6471.6115048898
 20
3839.5390383111
 30
0.0
 11
6487.6115048898
 21
3839.5390383111
 31
0.0
  0
LINE
  5
141
330
1F
100
AcDbEntity
  8
0
  6
Continuous
 62
     7
370
    25
100
AcDbLine
 10
6487.6115048898
 20
3840.0390383111
 30
0.0
 11
6471.6115048898
 21
3840.0390383111
 31
0.0
  0
LINE
  5
142
330
1F
100
AcDbEntity
  8
0
  6
Continuous
 62
     7
370
    25
100
AcDbLine
 10
6472.1115048898
 20
3840.5390383111
 30
0.0
 11
6487.1115048898
 21
3840.5390383111
 31
0.0
  0
LINE
  5
143
330
1F
100
AcDbEntity
  8
0
  6
Continuous
 62
     7
370
    25
100
AcDbLine
 10
6907.6115048898
 20
3840.0390383111
 30
0.0
 11
6891.6115048898
 21
3840.0390383111
 31
0.0
  0
LINE
  5
144
330
1F
100
AcDbEntity
  8
0
  6
Continuous
 62
     7
370
    25
100
AcDbLine
 10
6892.1115048898
 20
3840.5390383111
 30
0.0
 11
6907.1115048898
 21
3840.5390383111
 31
0.0
  0
LINE
  5
145
330
1F
100
AcDbEntity
  8
0
  6
Continuous
 62
     7
370
    25
100
AcDbLine
 10
6891.6115048898
 20
3839.5390383111
 30
0.0
 11
6907.6115048898
 21
3839.5390383111
 31
0.0
  0
LINE
  5
146
330
1F
100
AcDbEntity
  8
0
  6
Continuous
 62
     7
370
    25
100
AcDbLine
 10
6443.1115048898
 20
3839.0390383111
 30
0.0
 11
6443.1115048898
 21
3837.0390383111
 31
0.0
  0
ELLIPSE
  5
147
330
1F
100
AcDbEntity
  8
0
  6
Continuous
 62
     7
370
    25
100
AcDbEllipse
 10
6443.1115048898
 20
3835.5390383111
 30
0.0
 11
3.5
 21
0.0
 31
0.0
210
0.0
220
0.0
230
1.0
 40
0.4285714286
 41
1.570796326794897
 42
3.141592653589793
  0
ARC
  5
148
330
1F
100
AcDbEntity
  8
0
  6
Continuous
 62
     7
370
    25
100
AcDbCircle
 10
6443.1115048898
 20
3835.5390383111
 30
0.0
 40
3.500000000000455
100
AcDbArc
 50
90.0
 51
180.0
  0
LINE
  5
149
330
1F
100
AcDbEntity
  8
0
  6
Continuous
 62
     7
370
    25
100
AcDbLine
 10
6936.1115048898
 20
3839.0390383111
 30
0.0
 11
6936.1115048898
 21
3837.0390383111
 31
0.0
  0
ARC
  5
14A
330
1F
100
AcDbEntity
  8
0
  6
Continuous
 62
     7
370
    25
100
AcDbCircle
 10
6936.1115048898
 20
3835.5390383111
 30
0.0
 40
3.500000000000455
100
AcDbArc
 50
0.0
 51
90.0
  0
ELLIPSE
  5
14B
330
1F
100
AcDbEntity
  8
0
  6
Continuous
 62
     7
370
    25
100
AcDbEllipse
 10
6936.1115048898
 20
3835.5390383111
 30
0.0
 11
3.5
 21
0.0
 31
0.0
210
0.0
220
0.0
230
1.0
 40
0.4285714286
 41
0.0
 42
1.570796326794897
  0
LINE
  5
14C
330
1F
100
AcDbEntity
  8
0
  6
Continuous
 62
     7
370
    25
100
AcDbLine
 10
6443.1115048898
 20
3839.0390383111
 30
0.0
 11
6936.1115048898
 21
3839.0390383111
 31
0.0
  0
LINE
  5
14D
330
1F
100
AcDbEntity
  8
0
  6
Continuous
 62
     7
370
    25
100
AcDbLine
 10
6936.1115048898
 20
3837.0390383111
 30
0.0
 11
6443.1115048898
 21
3837.0390383111
 31
0.0
  0
LINE
  5
14E
330
1F
100
AcDbEntity
  8
0
  6
Continuous
 62
     7
370
    25
100
AcDbLine
 10
6439.6115048898
 20
3537.1761233009
 30
0.0
 11
6443.1115048898
 21
3537.1761233009
 31
0.0
  0
LINE
  5
14F
330
1F
100
AcDbEntity
  8
0
  6
Continuous
 62
     7
370
    25
100
AcDbLine
 10
6439.6115048898
 20
3537.1761233009
 30
0.0
 11
6439.6115048898
 21
3835.5390383111
 31
0.0
  0
LINE
  5
150
330
1F
100
AcDbEntity
  8
0
  6
Continuous
 62
     7
370
    25
100
AcDbLine
 10
6443.1115048898
 20
3837.0390383111
 30
0.0
 11
6443.1115048898
 21
3537.1761233009
 31
0.0
  0
LINE
  5
151
330
1F
100
AcDbEntity
  8
0
  6
Continuous
 62
     7
370
    25
100
AcDbLine
 10
6939.6115048898
 20
3537.1761233009
 30
0.0
 11
6936.1115048898
 21
3537.1761233009
 31
0.0
  0
LINE
  5
152
330
1F
100
AcDbEntity
  8
0
  6
Continuous
 62
     7
370
    25
100
AcDbLine
 10
6936.1115048898
 20
3537.1761233009
 30
0.0
 11
6936.1115048898
 21
3837.0390383111
 31
0.0
  0
LINE
  5
153
330
1F
100
AcDbEntity
  8
0
  6
Continuous
 62
     7
370
    25
100
AcDbLine
 10
6939.6115048898
 20
3835.5390383111
 30
0.0
 11
6939.6115048898
 21
3537.1761233009
 31
0.0
  0
ARC
  5
154
330
1F
100
AcDbEntity
  8
0
  6
Continuous
 62
     7
370
    25
100
AcDbCircle
 10
6859.6115048898
 20
3537.1761233009
 30
0.0
 40
76.50000000000037
100
AcDbArc
 50
315.0
 51
0.0
  0
LINE
  5
155
330
1F
100
AcDbEntity
  8
0
  6
Continuous
 62
     7
370
    25
100
AcDbLine
 10
6873.1617574215
 20
3442.5390383111
 30
0.0
 11
6913.7051736505
 21
3483.0824545402
 31
0.0
  0
LINE
  5
156
330
1F
100
AcDbEntity
  8
0
  6
Continuous
 62
     7
370
    25
100
AcDbLine
 10
6506.0612523581
 20
3442.5390383111
 30
0.0
 11
6873.1617574215
 21
3442.5390383111
 31
0.0
  0
LINE
  5
157
330
1F
100
AcDbEntity
  8
0
  6
Continuous
 62
     7
370
    25
100
AcDbLine
 10
6465.517836129
 20
3483.0824545402
 30
0.0
 11
6506.0612523581
 21
3442.5390383111
 31
0.0
  0
ARC
  5
158
330
1F
100
AcDbEntity
  8
0
  6
Continuous
 62
     7
370
    25
100
AcDbCircle
 10
6519.6115048898
 20
3537.1761233009
 30
0.0
 40
76.50000000000006
100
AcDbArc
 50
180.0
 51
225.0
  0
LINE
  5
159
330
1F
100
AcDbEntity
  8
0
  6
Continuous
 62
     7
370
    25
100
AcDbLine
 10
6909.3412126199
 20
3487.4464155708
 30
0.0
 11
6871.4338353601
 21
3449.5390383111
 31
0.0
  0
ARC
  5
15A
330
1F
100
AcDbEntity
  8
0
  6
Continuous
 62
     7
370
    25
100
AcDbCircle
 10
6859.6115048898
 20
3537.1761233009
 30
0.0
 40
70.32842712474667
100
AcDbArc
 50
315.0
 51
0.0
  0
LINE
  5
15B
330
1F
100
AcDbEntity
  8
0
  6
Continuous
 62
     7
370
    25
100
AcDbLine
 10
6929.9399320145
 20
3704.5390383111
 30
0.0
 11
6929.9399320145
 21
3537.1761233009
 31
0.0
  0
ELLIPSE
  5
15C
330
1F
100
AcDbEntity
  8
0
  6
Continuous
 62
     7
370
    25
100
AcDbEllipse
 10
6924.283077765
 20
3701.7106111863
 30
0.0
 11
4.898979485566998
 21
4.898979485566088
 31
0.0
210
0.0
220
0.0
230
1.0
 40
0.5773502692
 41
5.7595865315813
 42
6.806784082777927
  0
LINE
  5
15D
330
1F
100
AcDbEntity
  8
0
  6
Continuous
 62
     7
370
    25
100
AcDbLine
 10
6854.9399320145
 20
3707.3674654358
 30
0.0
 11
6927.1115048898
 21
3707.3674654358
 31
0.0
  0
LINE
  5
15E
330
1F
100
AcDbEntity
  8
0
  6
Continuous
 62
     7
370
    25
100
AcDbLine
 10
6854.9399320145
 20
3721.7106111863
 30
0.0
 11
6854.9399320145
 21
3707.3674654358
 31
0.0
  0
LINE
  5
15F
330
1F
100
AcDbEntity
  8
0
  6
Continuous
 62
     7
370
    25
100
AcDbLine
 10
6927.1115048898
 20
3721.7106111863
 30
0.0
 11
6854.9399320145
 21
3721.7106111863
 31
0.0
  0
ELLIPSE
  5
160
330
1F
100
AcDbEntity
  8
0
  6
Continuous
 62
     7
370
    25
100
AcDbEllipse
 10
6924.283077765
 20
3727.3674654358
 30
0.0
 11
-4.898979485566088
 21
4.898979485566542
 31
0.0
210
0.0
220
0.0
230
1.0
 40
0.5773502692
 41
2.617993877991638
 42
3.665191429188427
  0
LINE
  5
161
330
1F
100
AcDbEntity
  8
0
  6
Continuous
 62
     7
370
    25
100
AcDbLine
 10
6929.9399320145
 20
3799.5390383111
 30
0.0
 11
6929.9399320145
 21
3724.5390383111
 31
0.0
  0
ELLIPSE
  5
162
330
1F
100
AcDbEntity
  8
0
  6
Continuous
 62
     7
370
    25
100
AcDbEllipse
 10
6924.283077765
 20
3796.7106111863
 30
0.0
 11
-4.898979485566088
 21
-4.898979485566088
 31
0.0
210
0.0
220
0.0
230
1.0
 40
0.5773502692
 41
2.617993877991429
 42
3.665191429187992
  0
LINE
  5
163
330
1F
100
AcDbEntity
  8
0
  6
Continuous
 62
     7
370
    25
100
AcDbLine
 10
6842.1115048898
 20
3802.3674654358
 30
0.0
 11
6927.1115048898
 21
3802.3674654358
 31
0.0
  0
ELLIPSE
  5
164
330
1F
100
AcDbEntity
  8
0
  6
Continuous
 62
     7
370
    25
100
AcDbEllipse
 10
6844.9399320145
 20
3796.7106111863
 30
0.0
 11
4.898979485566088
 21
-4.898979485566088
 31
0.0
210
0.0
220
0.0
230
1.0
 40
0.5773502692
 41
2.61799387799158
 42
3.66519142918812
  0
LINE
  5
165
330
1F
100
AcDbEntity
  8
0
  6
Continuous
 62
     7
370
    25
100
AcDbLine
 10
6839.283077765
 20
3736.3674654358
 30
0.0
 11
6839.283077765
 21
3799.5390383111
 31
0.0
  0
LINE
  5
166
330
1F
100
AcDbEntity
  8
0
  6
Continuous
 62
     7
370
    25
100
AcDbLine
 10
6824.9399320145
 20
3736.3674654358
 30
0.0
 11
6839.283077765
 21
3736.3674654358
 31
0.0
  0
LINE
  5
167
330
1F
100
AcDbEntity
  8
0
  6
Continuous
 62
     7
370
    25
100
AcDbLine
 10
6824.9399320145
 20
3799.5390383111
 30
0.0
 11
6824.9399320145
 21
3736.3674654358
 31
0.0
  0
ELLIPSE
  5
168
330
1F
100
AcDbEntity
  8
0
  6
Continuous
 62
     7
370
    25
100
AcDbEllipse
 10
6819.283077765
 20
3796.7106111863
 30
0.0
 11
-4.898979485566088
 21
-4.898979485566088
 31
0.0
210
0.0
220
0.0
230
1.0
 40
0.5773502692
 41
2.617993877991614
 42
3.665191429187992
  0
LINE
  5
169
330
1F
100
AcDbEntity
  8
0
  6
Continuous
 62
     7
370
    25
100
AcDbLine
 10
6452.1115048898
 20
3802.3674654358
 30
0.0
 11
6822.1115048898
 21
3802.3674654358
 31
0.0
  0
ELLIPSE
  5
16A
330
1F
100
AcDbEntity
  8
0
  6
Continuous
 62
     7
370
    25
100
AcDbEllipse
 10
6454.9399320145
 20
3796.7106111863
 30
0.0
 11
-4.898979485566088
 21
4.898979485566542
 31
0.0
210
0.0
220
0.0
230
1.0
 40
0.5773502692
 41
5.759586531581474
 42
6.806784082777944
  0
LINE
  5
16B
330
1F
100
AcDbEntity
  8
0
  6
Continuous
 62
     7
370
    25
100
AcDbLine
 10
6449.283077765
 20
3537.1761233009
 30
0.0
 11
6449.283077765
 21
3799.5390383111
 31
0.0
  0
ARC
  5
16C
330
1F
100
AcDbEntity
  8
0
  6
Continuous
 62
     7
370
    25
100
AcDbCircle
 10
6519.6115048898
 20
3537.1761233009
 30
0.0
 40
70.32842712474576
100
AcDbArc
 50
180.0
 51
225.0
  0
LINE
  5
16D
330
1F
100
AcDbEntity
  8
0
  6
Continuous
 62
     7
370
    25
100
AcDbLine
 10
6507.7891744194
 20
3449.5390383111
 30
0.0
 11
6469.8817971597
 21
3487.4464155708
 31
0.0
  0
ELLIPSE
  5
16E
330
1F
100
AcDbEntity
  8
0
  6
Continuous
 62
     7
370
    25
100
AcDbEllipse
 10
6510.9607472947
 20
3454.3674654358
 30
0.0
 11
-2.255728652689868
 21
-5.44581070635877
 31
0.0
210
0.0
220
0.0
230
1.0
 40
0.6785983445
 41
6.009171103369284
 42
6.557199510989723
  0
LINE
  5
16F
330
1F
100
AcDbEntity
  8
0
  6
Continuous
 62
     7
370
    25
100
AcDbLine
 10
6869.4338353601
 20
3448.7106111863
 30
0.0
 11
6509.7891744194
 21
3448.7106111863
 31
0.0
  0
ELLIPSE
  5
170
330
1F
100
AcDbEntity
  8
0
  6
Continuous
 62
     7
370
    25
100
AcDbEllipse
 10
6868.2622624849
 20
3454.3674654358
 30
0.0
 11
2.255728652690777
 21
-5.44581070635877
 31
0.0
210
0.0
220
0.0
230
1.0
 40
0.6785983445
 41
6.00917110336923
 42
6.557199510989744
  0
ELLIPSE
  5
171
330
1F
100
AcDbEntity
  8
0
  6
Continuous
 62
     7
370
    25
100
AcDbEllipse
 10
6819.283077765
 20
3796.7106111863
 30
0.0
 11
4.082482904638709
 21
4.082482904638709
 31
0.0
210
0.0
220
0.0
230
1.0
 40
0.3464101615
 41
5.759586531581231
 42
6.806784082777918
  0
LINE
  5
172
330
1F
100
AcDbEntity
  8
0
  6
Continuous
 62
     7
370
    25
100
AcDbLine
 10
6822.1115048898
 20
3800.9532518735
 30
0.0
 11
6822.1115048898
 21
3802.3674654358
 31
0.0
  0
LINE
  5
173
330
1F
100
AcDbEntity
  8
0
  6
Continuous
 62
     7
370
    25
100
AcDbLine
 10
6823.5257184521
 20
3799.5390383111
 30
0.0
 11
6824.9399320145
 21
3799.5390383111
 31
0.0
  0
LINE
  5
174
330
1F
100
AcDbEntity
  8
0
  6
Continuous
 62
     7
370
    25
100
AcDbLine
 10
6822.1115048898
 20
3800.9532518735
 30
0.0
 11
6452.1115048898
 21
3800.9532518735
 31
0.0
  0
LINE
  5
175
330
1F
100
AcDbEntity
  8
0
  6
Continuous
 62
     7
370
    25
100
AcDbLine
 10
6452.1115048898
 20
3800.9532518735
 30
0.0
 11
6452.1115048898
 21
3802.3674654358
 31
0.0
  0
ELLIPSE
  5
176
330
1F
100
AcDbEntity
  8
0
  6
Continuous
 62
     7
370
    25
100
AcDbEllipse
 10
6454.9399320145
 20
3796.7106111863
 30
0.0
 11
-4.082482904638709
 21
4.082482904638709
 31
0.0
210
0.0
220
0.0
230
1.0
 40
0.3464101615
 41
5.759586531581355
 42
6.806784082777902
  0
LINE
  5
177
330
1F
100
AcDbEntity
  8
0
  6
Continuous
 62
     7
370
    25
100
AcDbLine
 10
6450.6972913274
 20
3799.5390383111
 30
0.0
 11
6449.283077765
 21
3799.5390383111
 31
0.0
  0
LINE
  5
178
330
1F
100
AcDbEntity
  8
0
  6
Continuous
 62
     7
370
    25
100
AcDbLine
 10
6823.5257184521
 20
3736.3674654358
 30
0.0
 11
6823.5257184521
 21
3799.5390383111
 31
0.0
  0
LINE
  5
179
330
1F
100
AcDbEntity
  8
0
  6
Continuous
 62
     7
370
    25
100
AcDbLine
 10
6823.5257184521
 20
3736.3674654358
 30
0.0
 11
6824.9399320145
 21
3736.3674654358
 31
0.0
  0
ELLIPSE
  5
17A
330
1F
100
AcDbEntity
  8
0
  6
Continuous
 62
     7
370
    25
100
AcDbEllipse
 10
6924.283077765
 20
3796.7106111863
 30
0.0
 11
4.082482904638709
 21
4.082482904638709
 31
0.0
210
0.0
220
0.0
230
1.0
 40
0.3464101615
 41
5.75958653158151
 42
6.806784082777639
  0
LINE
  5
17B
330
1F
100
AcDbEntity
  8
0
  6
Continuous
 62
     7
370
    25
100
AcDbLine
 10
6927.1115048898
 20
3800.9532518735
 30
0.0
 11
6927.1115048898
 21
3802.3674654358
 31
0.0
  0
LINE
  5
17C
330
1F
100
AcDbEntity
  8
0
  6
Continuous
 62
     7
370
    25
100
AcDbLine
 10
6928.5257184521
 20
3799.5390383111
 30
0.0
 11
6929.9399320145
 21
3799.5390383111
 31
0.0
  0
ELLIPSE
  5
17D
330
1F
100
AcDbEntity
  8
0
  6
Continuous
 62
     7
370
    25
100
AcDbEllipse
 10
6844.9399320145
 20
3796.7106111863
 30
0.0
 11
4.0824829046378
 21
-4.082482904638255
 31
0.0
210
0.0
220
0.0
230
1.0
 40
0.3464101615
 41
2.617993877991799
 42
3.665191429188126
  0
LINE
  5
17E
330
1F
100
AcDbEntity
  8
0
  6
Continuous
 62
     7
370
    25
100
AcDbLine
 10
6840.6972913274
 20
3799.5390383111
 30
0.0
 11
6839.283077765
 21
3799.5390383111
 31
0.0
  0
LINE
  5
17F
330
1F
100
AcDbEntity
  8
0
  6
Continuous
 62
     7
370
    25
100
AcDbLine
 10
6842.1115048898
 20
3800.9532518735
 30
0.0
 11
6842.1115048898
 21
3802.3674654358
 31
0.0
  0
LINE
  5
180
330
1F
100
AcDbEntity
  8
0
  6
Continuous
 62
     7
370
    25
100
AcDbLine
 10
6927.1115048898
 20
3800.9532518735
 30
0.0
 11
6842.1115048898
 21
3800.9532518735
 31
0.0
  0
LINE
  5
181
330
1F
100
AcDbEntity
  8
0
  6
Continuous
 62
     7
370
    25
100
AcDbLine
 10
6840.6972913274
 20
3799.5390383111
 30
0.0
 11
6840.6972913274
 21
3736.3674654358
 31
0.0
  0
LINE
  5
182
330
1F
100
AcDbEntity
  8
0
  6
Continuous
 62
     7
370
    25
100
AcDbLine
 10
6840.6972913274
 20
3736.3674654358
 30
0.0
 11
6839.283077765
 21
3736.3674654358
 31
0.0
  0
LINE
  5
183
330
1F
100
AcDbEntity
  8
0
  6
Continuous
 62
     7
370
    25
100
AcDbLine
 10
6929.9399320145
 20
3724.5390383111
 30
0.0
 11
6928.5257184521
 21
3724.5390383111
 31
0.0
  0
LINE
  5
184
330
1F
100
AcDbEntity
  8
0
  6
Continuous
 62
     7
370
    25
100
AcDbLine
 10
6928.5257184521
 20
3724.5390383111
 30
0.0
 11
6928.5257184521
 21
3799.5390383111
 31
0.0
  0
LINE
  5
185
330
1F
100
AcDbEntity
  8
0
  6
Continuous
 62
     7
370
    25
100
AcDbLine
 10
6450.6972913274
 20
3799.5390383111
 30
0.0
 11
6450.6972913274
 21
3537.1761233009
 31
0.0
  0
LINE
  5
186
330
1F
100
AcDbEntity
  8
0
  6
Continuous
 62
     7
370
    25
100
AcDbLine
 10
6450.6972913274
 20
3537.1761233009
 30
0.0
 11
6449.283077765
 21
3537.1761233009
 31
0.0
  0
LINE
  5
187
330
1F
100
AcDbEntity
  8
0
  6
Continuous
 62
     7
370
    25
100
AcDbLine
 10
6898.6972913274
 20
3787.7106111863
 30
0.0
 11
6897.283077765
 21
3787.7106111863
 31
0.0
  0
LINE
  5
188
330
1F
100
AcDbEntity
  8
0
  6
Continuous
 62
     7
370
    25
100
AcDbLine
 10
6897.283077765
 20
3789.1248247487
 30
0.0
 11
6897.283077765
 21
3787.7106111863
 31
0.0
  0
ARC
  5
189
330
1F
100
AcDbEntity
  8
0
  6
Continuous
 62
     7
370
    25
100
AcDbCircle
 10
6895.7780220338
 20
3786.2055554551
 30
0.0
 40
3.284406485603946
100
AcDbArc
 50
27.2737787003
 51
62.7262212998
  0
LINE
  5
18A
330
1F
100
AcDbEntity
  8
0
  6
Continuous
 62
     7
370
    25
100
AcDbLine
 10
6859.6972913274
 20
3787.7106111863
 30
0.0
 11
6858.283077765
 21
3787.7106111863
 31
0.0
  0
LINE
  5
18B
330
1F
100
AcDbEntity
  8
0
  6
Continuous
 62
     7
370
    25
100
AcDbLine
 10
6858.283077765
 20
3789.1248247487
 30
0.0
 11
6858.283077765
 21
3787.7106111863
 31
0.0
  0
ARC
  5
18C
330
1F
100
AcDbEntity
  8
0
  6
Continuous
 62
     7
370
    25
100
AcDbCircle
 10
6856.7780220338
 20
3786.2055554551
 30
0.0
 40
3.284406485604962
100
AcDbArc
 50
27.2737787003
 51
62.7262212997
  0
LINE
  5
18D
330
1F
100
AcDbEntity
  8
0
  6
Continuous
 62
     7
370
    25
100
AcDbLine
 10
6910.9399320145
 20
3789.1248247487
 30
0.0
 11
6916.283077765
 21
3789.1248247487
 31
0.0
  0
LINE
  5
18E
330
1F
100
AcDbEntity
  8
0
  6
Continuous
 62
     7
370
    25
100
AcDbLine
 10
6916.283077765
 20
3789.1248247487
 30
0.0
 11
6916.283077765
 21
3787.7106111863
 31
0.0
  0
LINE
  5
18F
330
1F
100
AcDbEntity
  8
0
  6
Continuous
 62
     7
370
    25
100
AcDbLine
 10
6916.283077765
 20
3787.7106111863
 30
0.0
 11
6910.9399320145
 21
3787.7106111863
 31
0.0
  0
LINE
  5
190
330
1F
100
AcDbEntity
  8
0
  6
Continuous
 62
     7
370
    25
100
AcDbLine
 10
6910.9399320145
 20
3789.1248247487
 30
0.0
 11
6910.9399320145
 21
3787.7106111863
 31
0.0
  0
LINE
  5
191
330
1F
100
AcDbEntity
  8
0
  6
Continuous
 62
     7
370
    25
100
AcDbLine
 10
6858.283077765
 20
3787.7106111863
 30
0.0
 11
6852.9399320145
 21
3787.7106111863
 31
0.0
  0
LINE
  5
192
330
1F
100
AcDbEntity
  8
0
  6
Continuous
 62
     7
370
    25
100
AcDbLine
 10
6852.9399320145
 20
3787.7106111863
 30
0.0
 11
6852.9399320145
 21
3789.1248247487
 31
0.0
  0
LINE
  5
193
330
1F
100
AcDbEntity
  8
0
  6
Continuous
 62
     7
370
    25
100
AcDbLine
 10
6852.9399320145
 20
3789.1248247487
 30
0.0
 11
6858.283077765
 21
3789.1248247487
 31
0.0
  0
ARC
  5
194
330
1F
100
AcDbEntity
  8
0
  6
Continuous
 62
     7
370
    25
100
AcDbCircle
 10
6914.7780220338
 20
3786.2055554551
 30
0.0
 40
3.284406485603295
100
AcDbArc
 50
27.2737787003
 51
62.7262212998
  0
LINE
  5
195
330
1F
100
AcDbEntity
  8
0
  6
Continuous
 62
     7
370
    25
100
AcDbLine
 10
6916.283077765
 20
3787.7106111863
 30
0.0
 11
6917.6972913274
 21
3787.7106111863
 31
0.0
  0
LINE
  5
196
330
1F
100
AcDbEntity
  8
0
  6
Continuous
 62
     7
370
    25
100
AcDbLine
 10
6897.283077765
 20
3787.7106111863
 30
0.0
 11
6891.9399320145
 21
3787.7106111863
 31
0.0
  0
LINE
  5
197
330
1F
100
AcDbEntity
  8
0
  6
Continuous
 62
     7
370
    25
100
AcDbLine
 10
6891.9399320145
 20
3787.7106111863
 30
0.0
 11
6891.9399320145
 21
3789.1248247487
 31
0.0
  0
LINE
  5
198
330
1F
100
AcDbEntity
  8
0
  6
Continuous
 62
     7
370
    25
100
AcDbLine
 10
6891.9399320145
 20
3789.1248247487
 30
0.0
 11
6897.283077765
 21
3789.1248247487
 31
0.0
  0
LINE
  5
199
330
1F
100
AcDbEntity
  8
0
  6
Continuous
 62
     7
370
    25
100
AcDbLine
 10
6877.283077765
 20
3787.7106111863
 30
0.0
 11
6871.9399320145
 21
3787.7106111863
 31
0.0
  0
LINE
  5
19A
330
1F
100
AcDbEntity
  8
0
  6
Continuous
 62
     7
370
    25
100
AcDbLine
 10
6871.9399320145
 20
3787.7106111863
 30
0.0
 11
6871.9399320145
 21
3789.1248247487
 31
0.0
  0
LINE
  5
19B
330
1F
100
AcDbEntity
  8
0
  6
Continuous
 62
     7
370
    25
100
AcDbLine
 10
6871.9399320145
 20
3789.1248247487
 30
0.0
 11
6877.283077765
 21
3789.1248247487
 31
0.0
  0
LINE
  5
19C
330
1F
100
AcDbEntity
  8
0
  6
Continuous
 62
     7
370
    25
100
AcDbLine
 10
6877.283077765
 20
3789.1248247487
 30
0.0
 11
6877.283077765
 21
3787.7106111863
 31
0.0
  0
LINE
  5
19D
330
1F
100
AcDbEntity
  8
0
  6
Continuous
 62
     7
370
    25
100
AcDbLine
 10
6878.6972913274
 20
3787.7106111863
 30
0.0
 11
6877.283077765
 21
3787.7106111863
 31
0.0
  0
ARC
  5
19E
330
1F
100
AcDbEntity
  8
0
  6
Continuous
 62
     7
370
    25
100
AcDbCircle
 10
6875.7780220338
 20
3786.2055554551
 30
0.0
 40
3.284406485594536
100
AcDbArc
 50
27.2737787002
 51
62.7262212998
  0
LINE
  5
19F
330
1F
100
AcDbEntity
  8
0
  6
Continuous
 62
     7
370
    25
100
AcDbLine
 10
6852.9399320145
 20
3787.7106111863
 30
0.0
 11
6851.5257184521
 21
3787.7106111863
 31
0.0
  0
ARC
  5
1A0
330
1F
100
AcDbEntity
  8
0
  6
Continuous
 62
     7
370
    25
100
AcDbCircle
 10
6854.4449877457
 20
3786.2055554551
 30
0.0
 40
3.284406485601679
100
AcDbArc
 50
117.2737787002
 51
152.7262212997
  0
LINE
  5
1A1
330
1F
100
AcDbEntity
  8
0
  6
Continuous
 62
     7
370
    25
100
AcDbLine
 10
6871.9399320145
 20
3787.7106111863
 30
0.0
 11
6870.5257184521
 21
3787.7106111863
 31
0.0
  0
ARC
  5
1A2
330
1F
100
AcDbEntity
  8
0
  6
Continuous
 62
     7
370
    25
100
AcDbCircle
 10
6873.4449877457
 20
3786.2055554551
 30
0.0
 40
3.284406485600049
100
AcDbArc
 50
117.2737787002
 51
152.7262212997
  0
LINE
  5
1A3
330
1F
100
AcDbEntity
  8
0
  6
Continuous
 62
     7
370
    25
100
AcDbLine
 10
6891.9399320145
 20
3787.7106111863
 30
0.0
 11
6890.5257184521
 21
3787.7106111863
 31
0.0
  0
ARC
  5
1A4
330
1F
100
AcDbEntity
  8
0
  6
Continuous
 62
     7
370
    25
100
AcDbCircle
 10
6893.4449877457
 20
3786.2055554551
 30
0.0
 40
3.284406485595982
100
AcDbArc
 50
117.2737787002
 51
152.7262212998
  0
LINE
  5
1A5
330
1F
100
AcDbEntity
  8
0
  6
Continuous
 62
     7
370
    25
100
AcDbLine
 10
6909.5257184521
 20
3787.7106111863
 30
0.0
 11
6910.9399320145
 21
3787.7106111863
 31
0.0
  0
ARC
  5
1A6
330
1F
100
AcDbEntity
  8
0
  6
Continuous
 62
     7
370
    25
100
AcDbCircle
 10
6912.4449877457
 20
3786.2055554551
 30
0.0
 40
3.284406485604962
100
AcDbArc
 50
117.2737787003
 51
152.7262212997
  0
LINE
  5
1A7
330
1F
100
AcDbEntity
  8
0
  6
Continuous
 62
     7
370
    25
100
AcDbLine
 10
6916.283077765
 20
3736.3674654358
 30
0.0
 11
6916.283077765
 21
3787.7106111863
 31
0.0
  0
LINE
  5
1A8
330
1F
100
AcDbEntity
  8
0
  6
Continuous
 62
     7
370
    25
100
AcDbLine
 10
6917.6972913274
 20
3787.7106111863
 30
0.0
 11
6917.6972913274
 21
3736.3674654358
 31
0.0
  0
LINE
  5
1A9
330
1F
100
AcDbEntity
  8
0
  6
Continuous
 62
     7
370
    25
100
AcDbLine
 10
6916.283077765
 20
3736.3674654358
 30
0.0
 11
6917.6972913274
 21
3736.3674654358
 31
0.0
  0
LINE
  5
1AA
330
1F
100
AcDbEntity
  8
0
  6
Continuous
 62
     7
370
    25
100
AcDbLine
 10
6871.9399320145
 20
3787.7106111863
 30
0.0
 11
6871.9399320145
 21
3736.3674654358
 31
0.0
  0
LINE
  5
1AB
330
1F
100
AcDbEntity
  8
0
  6
Continuous
 62
     7
370
    25
100
AcDbLine
 10
6871.9399320145
 20
3736.3674654358
 30
0.0
 11
6870.5257184521
 21
3736.3674654358
 31
0.0
  0
LINE
  5
1AC
330
1F
100
AcDbEntity
  8
0
  6
Continuous
 62
     7
370
    25
100
AcDbLine
 10
6870.5257184521
 20
3736.3674654358
 30
0.0
 11
6870.5257184521
 21
3787.7106111863
 31
0.0
  0
LINE
  5
1AD
330
1F
100
AcDbEntity
  8
0
  6
Continuous
 62
     7
370
    25
100
AcDbLine
 10
6877.283077765
 20
3736.3674654358
 30
0.0
 11
6877.283077765
 21
3787.7106111863
 31
0.0
  0
LINE
  5
1AE
330
1F
100
AcDbEntity
  8
0
  6
Continuous
 62
     7
370
    25
100
AcDbLine
 10
6871.9399320145
 20
3736.3674654358
 30
0.0
 11
6877.283077765
 21
3736.3674654358
 31
0.0
  0
LINE
  5
1AF
330
1F
100
AcDbEntity
  8
0
  6
Continuous
 62
     7
370
    25
100
AcDbLine
 10
6910.9399320145
 20
3736.3674654358
 30
0.0
 11
6916.283077765
 21
3736.3674654358
 31
0.0
  0
LINE
  5
1B0
330
1F
100
AcDbEntity
  8
0
  6
Continuous
 62
     7
370
    25
100
AcDbLine
 10
6910.9399320145
 20
3787.7106111863
 30
0.0
 11
6910.9399320145
 21
3736.3674654358
 31
0.0
  0
LINE
  5
1B1
330
1F
100
AcDbEntity
  8
0
  6
Continuous
 62
     7
370
    25
100
AcDbLine
 10
6898.6972913274
 20
3787.7106111863
 30
0.0
 11
6898.6972913274
 21
3736.3674654358
 31
0.0
  0
LINE
  5
1B2
330
1F
100
AcDbEntity
  8
0
  6
Continuous
 62
     7
370
    25
100
AcDbLine
 10
6898.6972913274
 20
3736.3674654358
 30
0.0
 11
6897.283077765
 21
3736.3674654358
 31
0.0
  0
LINE
  5
1B3
330
1F
100
AcDbEntity
  8
0
  6
Continuous
 62
     7
370
    25
100
AcDbLine
 10
6897.283077765
 20
3736.3674654358
 30
0.0
 11
6897.283077765
 21
3787.7106111863
 31
0.0
  0
LINE
  5
1B4
330
1F
100
AcDbEntity
  8
0
  6
Continuous
 62
     7
370
    25
100
AcDbLine
 10
6859.6972913274
 20
3787.7106111863
 30
0.0
 11
6859.6972913274
 21
3736.3674654358
 31
0.0
  0
LINE
  5
1B5
330
1F
100
AcDbEntity
  8
0
  6
Continuous
 62
     7
370
    25
100
AcDbLine
 10
6859.6972913274
 20
3736.3674654358
 30
0.0
 11
6858.283077765
 21
3736.3674654358
 31
0.0
  0
LINE
  5
1B6
330
1F
100
AcDbEntity
  8
0
  6
Continuous
 62
     7
370
    25
100
AcDbLine
 10
6858.283077765
 20
3736.3674654358
 30
0.0
 11
6858.283077765
 21
3787.7106111863
 31
0.0
  0
LINE
  5
1B7
330
1F
100
AcDbEntity
  8
0
  6
Continuous
 62
     7
370
    25
100
AcDbLine
 10
6878.6972913274
 20
3787.7106111863
 30
0.0
 11
6878.6972913274
 21
3736.3674654358
 31
0.0
  0
LINE
  5
1B8
330
1F
100
AcDbEntity
  8
0
  6
Continuous
 62
     7
370
    25
100
AcDbLine
 10
6878.6972913274
 20
3736.3674654358
 30
0.0
 11
6877.283077765
 21
3736.3674654358
 31
0.0
  0
LINE
  5
1B9
330
1F
100
AcDbEntity
  8
0
  6
Continuous
 62
     7
370
    25
100
AcDbLine
 10
6891.9399320145
 20
3736.3674654358
 30
0.0
 11
6897.283077765
 21
3736.3674654358
 31
0.0
  0
LINE
  5
1BA
330
1F
100
AcDbEntity
  8
0
  6
Continuous
 62
     7
370
    25
100
AcDbLine
 10
6891.9399320145
 20
3787.7106111863
 30
0.0
 11
6891.9399320145
 21
3736.3674654358
 31
0.0
  0
LINE
  5
1BB
330
1F
100
AcDbEntity
  8
0
  6
Continuous
 62
     7
370
    25
100
AcDbLine
 10
6891.9399320145
 20
3736.3674654358
 30
0.0
 11
6890.5257184521
 21
3736.3674654358
 31
0.0
  0
LINE
  5
1BC
330
1F
100
AcDbEntity
  8
0
  6
Continuous
 62
     7
370
    25
100
AcDbLine
 10
6890.5257184521
 20
3736.3674654358
 30
0.0
 11
6890.5257184521
 21
3787.7106111863
 31
0.0
  0
LINE
  5
1BD
330
1F
100
AcDbEntity
  8
0
  6
Continuous
 62
     7
370
    25
100
AcDbLine
 10
6852.9399320145
 20
3787.7106111863
 30
0.0
 11
6852.9399320145
 21
3736.3674654358
 31
0.0
  0
LINE
  5
1BE
330
1F
100
AcDbEntity
  8
0
  6
Continuous
 62
     7
370
    25
100
AcDbLine
 10
6852.9399320145
 20
3736.3674654358
 30
0.0
 11
6851.5257184521
 21
3736.3674654358
 31
0.0
  0
LINE
  5
1BF
330
1F
100
AcDbEntity
  8
0
  6
Continuous
 62
     7
370
    25
100
AcDbLine
 10
6851.5257184521
 20
3736.3674654358
 30
0.0
 11
6851.5257184521
 21
3787.7106111863
 31
0.0
  0
LINE
  5
1C0
330
1F
100
AcDbEntity
  8
0
  6
Continuous
 62
     7
370
    25
100
AcDbLine
 10
6909.5257184521
 20
3736.3674654358
 30
0.0
 11
6909.5257184521
 21
3787.7106111863
 31
0.0
  0
LINE
  5
1C1
330
1F
100
AcDbEntity
  8
0
  6
Continuous
 62
     7
370
    25
100
AcDbLine
 10
6909.5257184521
 20
3736.3674654358
 30
0.0
 11
6910.9399320145
 21
3736.3674654358
 31
0.0
  0
LINE
  5
1C2
330
1F
100
AcDbEntity
  8
0
  6
Continuous
 62
     7
370
    25
100
AcDbLine
 10
6852.9399320145
 20
3736.3674654358
 30
0.0
 11
6858.283077765
 21
3736.3674654358
 31
0.0
  0
LINE
  5
1C3
330
1F
100
AcDbEntity
  8
0
  6
Continuous
 62
     7
370
    25
100
AcDbLine
 10
6824.9399320145
 20
3734.9532518735
 30
0.0
 11
6824.9399320145
 21
3736.3674654358
 31
0.0
  0
ARC
  5
1C4
330
1F
100
AcDbEntity
  8
0
  6
Continuous
 62
     7
370
    25
100
AcDbCircle
 10
6826.4449877457
 20
3737.872521167
 30
0.0
 40
3.284406485600479
100
AcDbArc
 50
207.2737787002
 51
242.7262212997
  0
LINE
  5
1C5
330
1F
100
AcDbEntity
  8
0
  6
Continuous
 62
     7
370
    25
100
AcDbLine
 10
6839.283077765
 20
3734.9532518735
 30
0.0
 11
6824.9399320145
 21
3734.9532518735
 31
0.0
  0
LINE
  5
1C6
330
1F
100
AcDbEntity
  8
0
  6
Continuous
 62
     7
370
    25
100
AcDbLine
 10
6839.283077765
 20
3734.9532518735
 30
0.0
 11
6839.283077765
 21
3736.3674654358
 31
0.0
  0
ARC
  5
1C7
330
1F
100
AcDbEntity
  8
0
  6
Continuous
 62
     7
370
    25
100
AcDbCircle
 10
6837.7780220338
 20
3737.8725211671
 30
0.0
 40
3.284406485606579
100
AcDbArc
 50
297.2737787003
 51
332.7262212997
  0
ARC
  5
1C8
330
1F
100
AcDbEntity
  8
0
  6
Continuous
 62
     7
370
    25
100
AcDbCircle
 10
6914.7780220338
 20
3737.8725211671
 30
0.0
 40
3.284406485601079
100
AcDbArc
 50
297.2737787002
 51
332.7262212997
  0
LINE
  5
1C9
330
1F
100
AcDbEntity
  8
0
  6
Continuous
 62
     7
370
    25
100
AcDbLine
 10
6916.283077765
 20
3736.3674654358
 30
0.0
 11
6916.283077765
 21
3734.9532518735
 31
0.0
  0
LINE
  5
1CA
330
1F
100
AcDbEntity
  8
0
  6
Continuous
 62
     7
370
    25
100
AcDbLine
 10
6910.9399320145
 20
3736.3674654358
 30
0.0
 11
6910.9399320145
 21
3734.9532518735
 31
0.0
  0
ARC
  5
1CB
330
1F
100
AcDbEntity
  8
0
  6
Continuous
 62
     7
370
    25
100
AcDbCircle
 10
6912.4449877457
 20
3737.8725211671
 30
0.0
 40
3.284406485601274
100
AcDbArc
 50
207.2737787003
 51
242.7262212997
  0
LINE
  5
1CC
330
1F
100
AcDbEntity
  8
0
  6
Continuous
 62
     7
370
    25
100
AcDbLine
 10
6897.283077765
 20
3734.9532518735
 30
0.0
 11
6897.283077765
 21
3736.3674654358
 31
0.0
  0
LINE
  5
1CD
330
1F
100
AcDbEntity
  8
0
  6
Continuous
 62
     7
370
    25
100
AcDbLine
 10
6897.283077765
 20
3734.9532518735
 30
0.0
 11
6891.9399320145
 21
3734.9532518735
 31
0.0
  0
LINE
  5
1CE
330
1F
100
AcDbEntity
  8
0
  6
Continuous
 62
     7
370
    25
100
AcDbLine
 10
6891.9399320145
 20
3736.3674654358
 30
0.0
 11
6891.9399320145
 21
3734.9532518735
 31
0.0
  0
ARC
  5
1CF
330
1F
100
AcDbEntity
  8
0
  6
Continuous
 62
     7
370
    25
100
AcDbCircle
 10
6893.4449877457
 20
3737.872521167
 30
0.0
 40
3.284406485595578
100
AcDbArc
 50
207.2737787002
 51
242.7262212998
  0
LINE
  5
1D0
330
1F
100
AcDbEntity
  8
0
  6
Continuous
 62
     7
370
    25
100
AcDbLine
 10
6852.9399320145
 20
3736.3674654358
 30
0.0
 11
6852.9399320145
 21
3734.9532518735
 31
0.0
  0
ARC
  5
1D1
330
1F
100
AcDbEntity
  8
0
  6
Continuous
 62
     7
370
    25
100
AcDbCircle
 10
6854.4449877457
 20
3737.8725211671
 30
0.0
 40
3.284406485601274
100
AcDbArc
 50
207.2737787003
 51
242.7262212997
  0
LINE
  5
1D2
330
1F
100
AcDbEntity
  8
0
  6
Continuous
 62
     7
370
    25
100
AcDbLine
 10
6871.9399320145
 20
3736.3674654358
 30
0.0
 11
6871.9399320145
 21
3734.9532518735
 31
0.0
  0
ARC
  5
1D3
330
1F
100
AcDbEntity
  8
0
  6
Continuous
 62
     7
370
    25
100
AcDbCircle
 10
6873.4449877457
 20
3737.872521167
 30
0.0
 40
3.284406485596373
100
AcDbArc
 50
207.2737787002
 51
242.7262212998
  0
LINE
  5
1D4
330
1F
100
AcDbEntity
  8
0
  6
Continuous
 62
     7
370
    25
100
AcDbLine
 10
6877.283077765
 20
3734.9532518735
 30
0.0
 11
6877.283077765
 21
3736.3674654358
 31
0.0
  0
LINE
  5
1D5
330
1F
100
AcDbEntity
  8
0
  6
Continuous
 62
     7
370
    25
100
AcDbLine
 10
6877.283077765
 20
3734.9532518735
 30
0.0
 11
6871.9399320145
 21
3734.9532518735
 31
0.0
  0
LINE
  5
1D6
330
1F
100
AcDbEntity
  8
0
  6
Continuous
 62
     7
370
    25
100
AcDbLine
 10
6858.283077765
 20
3734.9532518735
 30
0.0
 11
6858.283077765
 21
3736.3674654358
 31
0.0
  0
LINE
  5
1D7
330
1F
100
AcDbEntity
  8
0
  6
Continuous
 62
     7
370
    25
100
AcDbLine
 10
6858.283077765
 20
3734.9532518735
 30
0.0
 11
6852.9399320145
 21
3734.9532518735
 31
0.0
  0
LINE
  5
1D8
330
1F
100
AcDbEntity
  8
0
  6
Continuous
 62
     7
370
    25
100
AcDbLine
 10
6916.283077765
 20
3734.9532518735
 30
0.0
 11
6910.9399320145
 21
3734.9532518735
 31
0.0
  0
ARC
  5
1D9
330
1F
100
AcDbEntity
  8
0
  6
Continuous
 62
     7
370
    25
100
AcDbCircle
 10
6895.7780220338
 20
3737.8725211671
 30
0.0
 40
3.284406485601887
100
AcDbArc
 50
297.2737787002
 51
332.7262212997
  0
ARC
  5
1DA
330
1F
100
AcDbEntity
  8
0
  6
Continuous
 62
     7
370
    25
100
AcDbCircle
 10
6875.7780220338
 20
3737.872521167
 30
0.0
 40
3.284406485591081
100
AcDbArc
 50
297.2737787002
 51
332.7262212998
  0
ARC
  5
1DB
330
1F
100
AcDbEntity
  8
0
  6
Continuous
 62
     7
370
    25
100
AcDbCircle
 10
6856.7780220338
 20
3737.8725211671
 30
0.0
 40
3.284406485602108
100
AcDbArc
 50
297.2737787003
 51
332.7262212997
  0
LINE
  5
1DC
330
1F
100
AcDbEntity
  8
0
  6
Continuous
 62
     7
370
    25
100
AcDbLine
 10
6854.9399320145
 20
3721.7106111863
 30
0.0
 11
6853.5257184521
 21
3721.7106111863
 31
0.0
  0
ARC
  5
1DD
330
1F
100
AcDbEntity
  8
0
  6
Continuous
 62
     7
370
    25
100
AcDbCircle
 10
6856.4449877457
 20
3720.2055554551
 30
0.0
 40
3.28440648560087
100
AcDbArc
 50
117.2737787003
 51
152.7262212997
  0
LINE
  5
1DE
330
1F
100
AcDbEntity
  8
0
  6
Continuous
 62
     7
370
    25
100
AcDbLine
 10
6854.9399320145
 20
3721.7106111863
 30
0.0
 11
6854.9399320145
 21
3723.1248247487
 31
0.0
  0
LINE
  5
1DF
330
1F
100
AcDbEntity
  8
0
  6
Continuous
 62
     7
370
    25
100
AcDbLine
 10
6927.1115048898
 20
3721.7106111863
 30
0.0
 11
6927.1115048898
 21
3723.1248247487
 31
0.0
  0
ELLIPSE
  5
1E0
330
1F
100
AcDbEntity
  8
0
  6
Continuous
 62
     7
370
    25
100
AcDbEllipse
 10
6924.283077765
 20
3727.3674654358
 30
0.0
 11
4.082482904638709
 21
-4.082482904638255
 31
0.0
210
0.0
220
0.0
230
1.0
 40
0.3464101615
 41
5.759586531581295
 42
6.80678408277799
  0
LINE
  5
1E1
330
1F
100
AcDbEntity
  8
0
  6
Continuous
 62
     7
370
    25
100
AcDbLine
 10
6854.9399320145
 20
3707.3674654358
 30
0.0
 11
6853.5257184521
 21
3707.3674654358
 31
0.0
  0
LINE
  5
1E2
330
1F
100
AcDbEntity
  8
0
  6
Continuous
 62
     7
370
    25
100
AcDbLine
 10
6853.5257184521
 20
3707.3674654358
 30
0.0
 11
6853.5257184521
 21
3721.7106111863
 31
0.0
  0
LINE
  5
1E3
330
1F
100
AcDbEntity
  8
0
  6
Continuous
 62
     7
370
    25
100
AcDbLine
 10
6854.9399320145
 20
3723.1248247487
 30
0.0
 11
6927.1115048898
 21
3723.1248247487
 31
0.0
  0
LINE
  5
1E4
330
1F
100
AcDbEntity
  8
0
  6
Continuous
 62
     7
370
    25
100
AcDbLine
 10
6929.9399320145
 20
3704.5390383111
 30
0.0
 11
6928.5257184521
 21
3704.5390383111
 31
0.0
  0
ELLIPSE
  5
1E5
330
1F
100
AcDbEntity
  8
0
  6
Continuous
 62
     7
370
    25
100
AcDbEllipse
 10
6924.283077765
 20
3701.7106111863
 30
0.0
 11
4.082482904638709
 21
4.082482904638255
 31
0.0
210
0.0
220
0.0
230
1.0
 40
0.3464101615
 41
5.759586531581506
 42
6.806784082777448
  0
LINE
  5
1E6
330
1F
100
AcDbEntity
  8
0
  6
Continuous
 62
     7
370
    25
100
AcDbLine
 10
6927.1115048898
 20
3707.3674654358
 30
0.0
 11
6927.1115048898
 21
3705.9532518734
 31
0.0
  0
LINE
  5
1E7
330
1F
100
AcDbEntity
  8
0
  6
Continuous
 62
     7
370
    25
100
AcDbLine
 10
6927.1115048898
 20
3705.9532518734
 30
0.0
 11
6854.9399320145
 21
3705.9532518734
 31
0.0
  0
LINE
  5
1E8
330
1F
100
AcDbEntity
  8
0
  6
Continuous
 62
     7
370
    25
100
AcDbLine
 10
6854.9399320145
 20
3707.3674654358
 30
0.0
 11
6854.9399320145
 21
3705.9532518734
 31
0.0
  0
ARC
  5
1E9
330
1F
100
AcDbEntity
  8
0
  6
Continuous
 62
     7
370
    25
100
AcDbCircle
 10
6856.4449877457
 20
3708.8725211671
 30
0.0
 40
3.284406485605379
100
AcDbArc
 50
207.2737787003
 51
242.7262212997
  0
LINE
  5
1EA
330
1F
100
AcDbEntity
  8
0
  6
Continuous
 62
     7
370
    25
100
AcDbLine
 10
6929.9399320145
 20
3537.1761233009
 30
0.0
 11
6928.5257184521
 21
3537.1761233009
 31
0.0
  0
LINE
  5
1EB
330
1F
100
AcDbEntity
  8
0
  6
Continuous
 62
     7
370
    25
100
AcDbLine
 10
6928.5257184521
 20
3537.1761233009
 30
0.0
 11
6928.5257184521
 21
3704.5390383111
 31
0.0
  0
ARC
  5
1EC
330
1F
100
AcDbEntity
  8
0
  6
Continuous
 62
     7
370
    25
100
AcDbCircle
 10
6859.6115048898
 20
3537.1761233009
 30
0.0
 40
80.00000000000065
100
AcDbArc
 50
315.0
 51
0.0
  0
LINE
  5
1ED
330
1F
100
AcDbEntity
  8
0
  6
Continuous
 62
     7
370
    25
100
AcDbLine
 10
6916.1800473847
 20
3480.607580806
 30
0.0
 11
6913.7051736505
 21
3483.0824545402
 31
0.0
  0
ARC
  5
1EE
330
1F
100
AcDbEntity
  8
0
  6
Continuous
 62
     7
370
    25
100
AcDbCircle
 10
6519.6115048898
 20
3537.1761233009
 30
0.0
 40
68.91421356237333
100
AcDbArc
 50
180.0
 51
225.0
  0
LINE
  5
1EF
330
1F
100
AcDbEntity
  8
0
  6
Continuous
 62
     7
370
    25
100
AcDbLine
 10
6470.8817971597
 20
3488.4464155708
 30
0.0
 11
6469.8817971597
 21
3487.4464155708
 31
0.0
  0
LINE
  5
1F0
330
1F
100
AcDbEntity
  8
0
  6
Continuous
 62
     7
370
    25
100
AcDbLine
 10
6909.3412126199
 20
3487.4464155708
 30
0.0
 11
6908.3412126199
 21
3488.4464155708
 31
0.0
  0
ARC
  5
1F1
330
1F
100
AcDbEntity
  8
0
  6
Continuous
 62
     7
370
    25
100
AcDbCircle
 10
6859.6115048898
 20
3537.1761233009
 30
0.0
 40
68.91421356237333
100
AcDbArc
 50
315.0
 51
0.0
  0
ARC
  5
1F2
330
1F
100
AcDbEntity
  8
0
  6
Continuous
 62
     7
370
    25
100
AcDbCircle
 10
6519.6115048898
 20
3537.1761233009
 30
0.0
 40
80.0
100
AcDbArc
 50
180.0
 51
225.0
  0
LINE
  5
1F3
330
1F
100
AcDbEntity
  8
0
  6
Continuous
 62
     7
370
    25
100
AcDbLine
 10
6463.0429623948
 20
3480.607580806
 30
0.0
 11
6465.517836129
 21
3483.0824545402
 31
0.0
  0
LINE
  5
1F4
330
1F
100
AcDbEntity
  8
0
  6
Continuous
 62
     7
370
    25
100
AcDbLine
 10
6470.8817971597
 20
3488.4464155708
 30
0.0
 11
6508.7891744194
 21
3450.5390383111
 31
0.0
  0
LINE
  5
1F5
330
1F
100
AcDbEntity
  8
0
  6
Continuous
 62
     7
370
    25
100
AcDbLine
 10
6507.7891744194
 20
3449.5390383111
 30
0.0
 11
6508.7891744194
 21
3450.5390383111
 31
0.0
  0
LINE
  5
1F6
330
1F
100
AcDbEntity
  8
0
  6
Continuous
 62
     7
370
    25
100
AcDbLine
 10
6871.4338353601
 20
3449.5390383111
 30
0.0
 11
6870.4338353601
 21
3450.5390383111
 31
0.0
  0
LINE
  5
1F7
330
1F
100
AcDbEntity
  8
0
  6
Continuous
 62
     7
370
    25
100
AcDbLine
 10
6870.4338353601
 20
3450.5390383111
 30
0.0
 11
6908.3412126199
 21
3488.4464155708
 31
0.0
  0
LINE
  5
1F8
330
1F
100
AcDbEntity
  8
0
  6
Continuous
 62
     7
370
    25
100
AcDbLine
 10
6503.5863786239
 20
3440.0641645769
 30
0.0
 11
6463.0429623948
 21
3480.607580806
 31
0.0
  0
LINE
  5
1F9
330
1F
100
AcDbEntity
  8
0
  6
Continuous
 62
     7
370
    25
100
AcDbLine
 10
6503.5863786239
 20
3440.0641645769
 30
0.0
 11
6506.0612523581
 21
3442.5390383111
 31
0.0
  0
LINE
  5
1FA
330
1F
100
AcDbEntity
  8
0
  6
Continuous
 62
     7
370
    25
100
AcDbLine
 10
6916.1800473847
 20
3480.607580806
 30
0.0
 11
6875.6366311556
 21
3440.0641645769
 31
0.0
  0
LINE
  5
1FB
330
1F
100
AcDbEntity
  8
0
  6
Continuous
 62
     7
370
    25
100
AcDbLine
 10
6875.6366311556
 20
3440.0641645769
 30
0.0
 11
6873.1617574215
 21
3442.5390383111
 31
0.0
  0
ELLIPSE
  5
1FC
330
1F
100
AcDbEntity
  8
0
  6
Continuous
 62
     7
370
    25
100
AcDbEllipse
 10
6510.9607472947
 20
3454.3674654358
 30
0.0
 11
1.736351965314497
 21
4.191924463714713
 31
0.0
210
0.0
220
0.0
230
1.0
 40
0.4407901624
 41
2.867578449780009
 42
3.415606857400333
  0
LINE
  5
1FD
330
1F
100
AcDbEntity
  8
0
  6
Continuous
 62
     7
370
    25
100
AcDbLine
 10
6509.7891744194
 20
3448.7106111863
 30
0.0
 11
6509.7891744194
 21
3450.1248247487
 31
0.0
  0
LINE
  5
1FE
330
1F
100
AcDbEntity
  8
0
  6
Continuous
 62
     7
370
    25
100
AcDbLine
 10
6869.4338353601
 20
3448.7106111863
 30
0.0
 11
6869.4338353601
 21
3450.1248247487
 31
0.0
  0
ELLIPSE
  5
1FF
330
1F
100
AcDbEntity
  8
0
  6
Continuous
 62
     7
370
    25
100
AcDbEllipse
 10
6868.2622624849
 20
3454.3674654358
 30
0.0
 11
-1.736351965313588
 21
4.191924463714713
 31
0.0
210
0.0
220
0.0
230
1.0
 40
0.4407901624
 41
2.867578449779676
 42
3.415606857400388
  0
LINE
  5
200
330
1F
100
AcDbEntity
  8
0
  6
Continuous
 62
     7
370
    25
100
AcDbLine
 10
6509.7891744194
 20
3450.1248247487
 30
0.0
 11
6869.4338353601
 21
3450.1248247487
 31
0.0
  0
LINE
  5
201
330
1F
100
AcDbEntity
  8
0
  6
Continuous
 62
     7
370
    25
100
AcDbLine
 10
6506.0612523581
 20
3439.0390383111
 30
0.0
 11
6506.0612523581
 21
3442.5390383111
 31
0.0
  0
ARC
  5
202
330
1F
100
AcDbEntity
  8
0
  6
Continuous
 62
     7
370
    25
100
AcDbCircle
 10
6506.0612523581
 20
3442.5390383111
 30
0.0
 40
3.500000000000455
100
AcDbArc
 50
225.0
 51
270.0
  0
LINE
  5
203
330
1F
100
AcDbEntity
  8
0
  6
Continuous
 62
     7
370
    25
100
AcDbLine
 10
6873.1617574215
 20
3439.0390383111
 30
0.0
 11
6506.0612523581
 21
3439.0390383111
 31
0.0
  0
LINE
  5
204
330
1F
100
AcDbEntity
  8
0
  6
Continuous
 62
     7
370
    25
100
AcDbLine
 10
6873.1617574215
 20
3439.0390383111
 30
0.0
 11
6873.1617574215
 21
3442.5390383111
 31
0.0
  0
ARC
  5
205
330
1F
100
AcDbEntity
  8
0
  6
Continuous
 62
     7
370
    25
100
AcDbCircle
 10
6873.1617574215
 20
3442.5390383111
 30
0.0
 40
3.500000000000455
100
AcDbArc
 50
270.0
 51
315.0
  0
LINE
  5
206
330
1F
100
AcDbEntity
  8
0
  6
Continuous
 62
     7
370
    25
100
AcDbLine
 10
6819.283077765
 20
3798.1248247487
 30
0.0
 11
6822.1115048898
 21
3800.9532518735
 31
0.0
  0
LINE
  5
207
330
1F
100
AcDbEntity
  8
0
  6
Continuous
 62
     7
370
    25
100
AcDbLine
 10
6823.5257184521
 20
3799.5390383111
 30
0.0
 11
6820.6972913274
 21
3796.7106111863
 31
0.0
  0
ARC
  5
208
330
1F
100
AcDbEntity
  8
0
  6
Continuous
 62
     7
370
    25
100
AcDbCircle
 10
6817.7780220338
 20
3795.2055554551
 30
0.0
 40
3.284406485592477
100
AcDbArc
 50
27.2737787002
 51
62.7262212998
  0
LINE
  5
209
330
1F
100
AcDbEntity
  8
0
  6
Continuous
 62
     7
370
    25
100
AcDbLine
 10
6924.283077765
 20
3798.1248247487
 30
0.0
 11
6927.1115048898
 21
3800.9532518735
 31
0.0
  0
LINE
  5
20A
330
1F
100
AcDbEntity
  8
0
  6
Continuous
 62
     7
370
    25
100
AcDbLine
 10
6928.5257184521
 20
3799.5390383111
 30
0.0
 11
6925.6972913274
 21
3796.7106111863
 31
0.0
  0
ARC
  5
20B
330
1F
100
AcDbEntity
  8
0
  6
Continuous
 62
     7
370
    25
100
AcDbCircle
 10
6922.7780220338
 20
3795.2055554551
 30
0.0
 40
3.28440648560087
100
AcDbArc
 50
27.2737787003
 51
62.7262212998
  0
LINE
  5
20C
330
1F
100
AcDbEntity
  8
0
  6
Continuous
 62
     7
370
    25
100
AcDbLine
 10
6843.5257184521
 20
3796.7106111863
 30
0.0
 11
6840.6972913274
 21
3799.5390383111
 31
0.0
  0
LINE
  5
20D
330
1F
100
AcDbEntity
  8
0
  6
Continuous
 62
     7
370
    25
100
AcDbLine
 10
6842.1115048898
 20
3800.9532518735
 30
0.0
 11
6844.9399320145
 21
3798.1248247487
 31
0.0
  0
ARC
  5
20E
330
1F
100
AcDbEntity
  8
0
  6
Continuous
 62
     7
370
    25
100
AcDbCircle
 10
6846.4449877457
 20
3795.2055554551
 30
0.0
 40
3.284406485600453
100
AcDbArc
 50
117.2737787002
 51
152.7262212997
  0
LINE
  5
20F
330
1F
100
AcDbEntity
  8
0
  6
Continuous
 62
     7
370
    25
100
AcDbLine
 10
6453.5257184521
 20
3796.7106111863
 30
0.0
 11
6450.6972913274
 21
3799.5390383111
 31
0.0
  0
LINE
  5
210
330
1F
100
AcDbEntity
  8
0
  6
Continuous
 62
     7
370
    25
100
AcDbLine
 10
6452.1115048898
 20
3800.9532518735
 30
0.0
 11
6454.9399320145
 21
3798.1248247487
 31
0.0
  0
ARC
  5
211
330
1F
100
AcDbEntity
  8
0
  6
Continuous
 62
     7
370
    25
100
AcDbCircle
 10
6456.4449877457
 20
3795.2055554551
 30
0.0
 40
3.284406485590248
100
AcDbArc
 50
117.2737787002
 51
152.7262212998
  0
LINE
  5
212
330
1F
100
AcDbEntity
  8
0
  6
Continuous
 62
     7
370
    25
100
AcDbLine
 10
6916.283077765
 20
3789.1248247487
 30
0.0
 11
6919.1115048898
 21
3791.9532518735
 31
0.0
  0
ELLIPSE
  5
213
330
1F
100
AcDbEntity
  8
0
  6
Continuous
 62
     7
370
    25
100
AcDbEllipse
 10
6916.283077765
 20
3787.7106111863
 30
0.0
 11
4.082482904639619
 21
4.082482904639164
 31
0.0
210
0.0
220
0.0
230
1.0
 40
0.3464101615
 41
5.759586531581131
 42
6.806784082778044
  0
LINE
  5
214
330
1F
100
AcDbEntity
  8
0
  6
Continuous
 62
     7
370
    25
100
AcDbLine
 10
6920.5257184521
 20
3790.5390383111
 30
0.0
 11
6917.6972913274
 21
3787.7106111863
 31
0.0
  0
LINE
  5
215
330
1F
100
AcDbEntity
  8
0
  6
Continuous
 62
     7
370
    25
100
AcDbLine
 10
6862.5257184521
 20
3790.5390383111
 30
0.0
 11
6859.6972913274
 21
3787.7106111863
 31
0.0
  0
LINE
  5
216
330
1F
100
AcDbEntity
  8
0
  6
Continuous
 62
     7
370
    25
100
AcDbLine
 10
6858.283077765
 20
3789.1248247487
 30
0.0
 11
6861.1115048898
 21
3791.9532518735
 31
0.0
  0
ELLIPSE
  5
217
330
1F
100
AcDbEntity
  8
0
  6
Continuous
 62
     7
370
    25
100
AcDbEllipse
 10
6858.283077765
 20
3787.7106111863
 30
0.0
 11
4.082482904637799
 21
4.082482904639163
 31
0.0
210
0.0
220
0.0
230
1.0
 40
0.3464101615
 41
5.759586531580864
 42
6.806784082777643
  0
LINE
  5
218
330
1F
100
AcDbEntity
  8
0
  6
Continuous
 62
     7
370
    25
100
AcDbLine
 10
6901.5257184521
 20
3790.5390383111
 30
0.0
 11
6898.6972913274
 21
3787.7106111863
 31
0.0
  0
LINE
  5
219
330
1F
100
AcDbEntity
  8
0
  6
Continuous
 62
     7
370
    25
100
AcDbLine
 10
6897.283077765
 20
3789.1248247487
 30
0.0
 11
6900.1115048898
 21
3791.9532518735
 31
0.0
  0
ELLIPSE
  5
21A
330
1F
100
AcDbEntity
  8
0
  6
Continuous
 62
     7
370
    25
100
AcDbEllipse
 10
6897.283077765
 20
3787.7106111863
 30
0.0
 11
4.082482904639619
 21
4.082482904639164
 31
0.0
210
0.0
220
0.0
230
1.0
 40
0.3464101615
 41
5.759586531581131
 42
6.806784082778044
  0
LINE
  5
21B
330
1F
100
AcDbEntity
  8
0
  6
Continuous
 62
     7
370
    25
100
AcDbLine
 10
6889.1115048898
 20
3791.9532518735
 30
0.0
 11
6891.9399320145
 21
3789.1248247487
 31
0.0
  0
LINE
  5
21C
330
1F
100
AcDbEntity
  8
0
  6
Continuous
 62
     7
370
    25
100
AcDbLine
 10
6890.5257184521
 20
3787.7106111863
 30
0.0
 11
6887.6972913274
 21
3790.5390383111
 31
0.0
  0
ELLIPSE
  5
21D
330
1F
100
AcDbEntity
  8
0
  6
Continuous
 62
     7
370
    25
100
AcDbEllipse
 10
6891.9399320145
 20
3787.7106111863
 30
0.0
 11
-4.082482904637799
 21
4.082482904639163
 31
0.0
210
0.0
220
0.0
230
1.0
 40
0.3464101615
 41
5.759586531581352
 42
6.806784082778326
  0
LINE
  5
21E
330
1F
100
AcDbEntity
  8
0
  6
Continuous
 62
     7
370
    25
100
AcDbLine
 10
6850.1115048898
 20
3791.9532518735
 30
0.0
 11
6852.9399320145
 21
3789.1248247487
 31
0.0
  0
LINE
  5
21F
330
1F
100
AcDbEntity
  8
0
  6
Continuous
 62
     7
370
    25
100
AcDbLine
 10
6851.5257184521
 20
3787.7106111863
 30
0.0
 11
6848.6972913274
 21
3790.5390383111
 31
0.0
  0
ELLIPSE
  5
220
330
1F
100
AcDbEntity
  8
0
  6
Continuous
 62
     7
370
    25
100
AcDbEllipse
 10
6852.9399320145
 20
3787.7106111863
 30
0.0
 11
-4.082482904638709
 21
4.082482904639164
 31
0.0
210
0.0
220
0.0
230
1.0
 40
0.3464101615
 41
5.759586531581526
 42
6.806784082777983
  0
LINE
  5
221
330
1F
100
AcDbEntity
  8
0
  6
Continuous
 62
     7
370
    25
100
AcDbLine
 10
6908.1115048898
 20
3791.9532518735
 30
0.0
 11
6910.9399320145
 21
3789.1248247487
 31
0.0
  0
LINE
  5
222
330
1F
100
AcDbEntity
  8
0
  6
Continuous
 62
     7
370
    25
100
AcDbLine
 10
6909.5257184521
 20
3787.7106111863
 30
0.0
 11
6906.6972913274
 21
3790.5390383111
 31
0.0
  0
ELLIPSE
  5
223
330
1F
100
AcDbEntity
  8
0
  6
Continuous
 62
     7
370
    25
100
AcDbEllipse
 10
6910.9399320145
 20
3787.7106111863
 30
0.0
 11
-4.082482904638709
 21
4.082482904639164
 31
0.0
210
0.0
220
0.0
230
1.0
 40
0.3464101615
 41
5.759586531581596
 42
6.806784082777913
  0
LINE
  5
224
330
1F
100
AcDbEntity
  8
0
  6
Continuous
 62
     7
370
    25
100
AcDbLine
 10
6881.5257184521
 20
3790.5390383111
 30
0.0
 11
6878.6972913274
 21
3787.7106111863
 31
0.0
  0
LINE
  5
225
330
1F
100
AcDbEntity
  8
0
  6
Continuous
 62
     7
370
    25
100
AcDbLine
 10
6877.283077765
 20
3789.1248247487
 30
0.0
 11
6880.1115048898
 21
3791.9532518735
 31
0.0
  0
ELLIPSE
  5
226
330
1F
100
AcDbEntity
  8
0
  6
Continuous
 62
     7
370
    25
100
AcDbEllipse
 10
6877.283077765
 20
3787.7106111863
 30
0.0
 11
4.0824829046378
 21
4.082482904638709
 31
0.0
210
0.0
220
0.0
230
1.0
 40
0.3464101615
 41
5.759586531581001
 42
6.806784082777702
  0
LINE
  5
227
330
1F
100
AcDbEntity
  8
0
  6
Continuous
 62
     7
370
    25
100
AcDbLine
 10
6869.1115048898
 20
3791.9532518735
 30
0.0
 11
6871.9399320145
 21
3789.1248247487
 31
0.0
  0
LINE
  5
228
330
1F
100
AcDbEntity
  8
0
  6
Continuous
 62
     7
370
    25
100
AcDbLine
 10
6870.5257184521
 20
3787.7106111863
 30
0.0
 11
6867.6972913274
 21
3790.5390383111
 31
0.0
  0
ELLIPSE
  5
229
330
1F
100
AcDbEntity
  8
0
  6
Continuous
 62
     7
370
    25
100
AcDbEllipse
 10
6871.9399320145
 20
3787.7106111863
 30
0.0
 11
-4.082482904638709
 21
4.082482904638709
 31
0.0
210
0.0
220
0.0
230
1.0
 40
0.3464101615
 41
5.759586531581537
 42
6.806784082778001
  0
LINE
  5
22A
330
1F
100
AcDbEntity
  8
0
  6
Continuous
 62
     7
370
    25
100
AcDbLine
 10
6842.1115048898
 20
3732.1248247487
 30
0.0
 11
6839.283077765
 21
3734.9532518735
 31
0.0
  0
LINE
  5
22B
330
1F
100
AcDbEntity
  8
0
  6
Continuous
 62
     7
370
    25
100
AcDbLine
 10
6840.6972913274
 20
3736.3674654358
 30
0.0
 11
6843.5257184521
 21
3733.5390383111
 31
0.0
  0
ELLIPSE
  5
22C
330
1F
100
AcDbEntity
  8
0
  6
Continuous
 62
     7
370
    25
100
AcDbEllipse
 10
6839.283077765
 20
3736.3674654358
 30
0.0
 11
4.082482904638709
 21
-4.082482904639164
 31
0.0
210
0.0
220
0.0
230
1.0
 40
0.3464101615
 41
5.759586531581123
 42
6.806784082778052
  0
LINE
  5
22D
330
1F
100
AcDbEntity
  8
0
  6
Continuous
 62
     7
370
    25
100
AcDbLine
 10
6917.6972913274
 20
3736.3674654358
 30
0.0
 11
6920.5257184521
 21
3733.5390383111
 31
0.0
  0
ELLIPSE
  5
22E
330
1F
100
AcDbEntity
  8
0
  6
Continuous
 62
     7
370
    25
100
AcDbEllipse
 10
6916.283077765
 20
3736.3674654358
 30
0.0
 11
-4.0824829046378
 21
4.082482904638255
 31
0.0
210
0.0
220
0.0
230
1.0
 40
0.3464101615
 41
2.617993877991869
 42
3.665191429188279
  0
LINE
  5
22F
330
1F
100
AcDbEntity
  8
0
  6
Continuous
 62
     7
370
    25
100
AcDbLine
 10
6919.1115048898
 20
3732.1248247487
 30
0.0
 11
6916.283077765
 21
3734.9532518735
 31
0.0
  0
LINE
  5
230
330
1F
100
AcDbEntity
  8
0
  6
Continuous
 62
     7
370
    25
100
AcDbLine
 10
6900.1115048898
 20
3732.1248247487
 30
0.0
 11
6897.283077765
 21
3734.9532518735
 31
0.0
  0
LINE
  5
231
330
1F
100
AcDbEntity
  8
0
  6
Continuous
 62
     7
370
    25
100
AcDbLine
 10
6898.6972913274
 20
3736.3674654358
 30
0.0
 11
6901.5257184521
 21
3733.5390383111
 31
0.0
  0
ELLIPSE
  5
232
330
1F
100
AcDbEntity
  8
0
  6
Continuous
 62
     7
370
    25
100
AcDbEllipse
 10
6897.283077765
 20
3736.3674654358
 30
0.0
 11
-4.0824829046378
 21
4.082482904638255
 31
0.0
210
0.0
220
0.0
230
1.0
 40
0.3464101615
 41
2.61799387799173
 42
3.665191429188418
  0
LINE
  5
233
330
1F
100
AcDbEntity
  8
0
  6
Continuous
 62
     7
370
    25
100
AcDbLine
 10
6861.1115048898
 20
3732.1248247487
 30
0.0
 11
6858.283077765
 21
3734.9532518735
 31
0.0
  0
LINE
  5
234
330
1F
100
AcDbEntity
  8
0
  6
Continuous
 62
     7
370
    25
100
AcDbLine
 10
6859.6972913274
 20
3736.3674654358
 30
0.0
 11
6862.5257184521
 21
3733.5390383111
 31
0.0
  0
ELLIPSE
  5
235
330
1F
100
AcDbEntity
  8
0
  6
Continuous
 62
     7
370
    25
100
AcDbEllipse
 10
6858.283077765
 20
3736.3674654358
 30
0.0
 11
-4.082482904638709
 21
4.082482904638255
 31
0.0
210
0.0
220
0.0
230
1.0
 40
0.3464101615
 41
2.617993877991235
 42
3.665191429188076
  0
LINE
  5
236
330
1F
100
AcDbEntity
  8
0
  6
Continuous
 62
     7
370
    25
100
AcDbLine
 10
6880.1115048898
 20
3732.1248247487
 30
0.0
 11
6877.283077765
 21
3734.9532518735
 31
0.0
  0
LINE
  5
237
330
1F
100
AcDbEntity
  8
0
  6
Continuous
 62
     7
370
    25
100
AcDbLine
 10
6878.6972913274
 20
3736.3674654358
 30
0.0
 11
6881.5257184521
 21
3733.5390383111
 31
0.0
  0
ELLIPSE
  5
238
330
1F
100
AcDbEntity
  8
0
  6
Continuous
 62
     7
370
    25
100
AcDbEllipse
 10
6877.283077765
 20
3736.3674654358
 30
0.0
 11
-4.082482904638709
 21
4.082482904638255
 31
0.0
210
0.0
220
0.0
230
1.0
 40
0.3464101615
 41
2.617993877991235
 42
3.665191429187853
  0
LINE
  5
239
330
1F
100
AcDbEntity
  8
0
  6
Continuous
 62
     7
370
    25
100
AcDbLine
 10
6820.6972913274
 20
3733.5390383111
 30
0.0
 11
6823.5257184521
 21
3736.3674654358
 31
0.0
  0
LINE
  5
23A
330
1F
100
AcDbEntity
  8
0
  6
Continuous
 62
     7
370
    25
100
AcDbLine
 10
6824.9399320145
 20
3734.9532518735
 30
0.0
 11
6822.1115048898
 21
3732.1248247487
 31
0.0
  0
ELLIPSE
  5
23B
330
1F
100
AcDbEntity
  8
0
  6
Continuous
 62
     7
370
    25
100
AcDbEllipse
 10
6824.9399320145
 20
3736.3674654358
 30
0.0
 11
4.082482904639618
 21
4.082482904638254
 31
0.0
210
0.0
220
0.0
230
1.0
 40
0.3464101615
 41
2.617993877991689
 42
3.665191429189295
  0
LINE
  5
23C
330
1F
100
AcDbEntity
  8
0
  6
Continuous
 62
     7
370
    25
100
AcDbLine
 10
6867.6972913274
 20
3733.5390383111
 30
0.0
 11
6870.5257184521
 21
3736.3674654358
 31
0.0
  0
LINE
  5
23D
330
1F
100
AcDbEntity
  8
0
  6
Continuous
 62
     7
370
    25
100
AcDbLine
 10
6871.9399320145
 20
3734.9532518735
 30
0.0
 11
6869.1115048898
 21
3732.1248247487
 31
0.0
  0
ELLIPSE
  5
23E
330
1F
100
AcDbEntity
  8
0
  6
Continuous
 62
     7
370
    25
100
AcDbEllipse
 10
6871.9399320145
 20
3736.3674654358
 30
0.0
 11
4.082482904638709
 21
4.082482904638255
 31
0.0
210
0.0
220
0.0
230
1.0
 40
0.3464101615
 41
2.617993877991625
 42
3.665191429188188
  0
LINE
  5
23F
330
1F
100
AcDbEntity
  8
0
  6
Continuous
 62
     7
370
    25
100
AcDbLine
 10
6848.6972913274
 20
3733.5390383111
 30
0.0
 11
6851.5257184521
 21
3736.3674654358
 31
0.0
  0
LINE
  5
240
330
1F
100
AcDbEntity
  8
0
  6
Continuous
 62
     7
370
    25
100
AcDbLine
 10
6852.9399320145
 20
3734.9532518735
 30
0.0
 11
6850.1115048898
 21
3732.1248247487
 31
0.0
  0
ELLIPSE
  5
241
330
1F
100
AcDbEntity
  8
0
  6
Continuous
 62
     7
370
    25
100
AcDbEllipse
 10
6852.9399320145
 20
3736.3674654358
 30
0.0
 11
4.0824829046378
 21
4.082482904638255
 31
0.0
210
0.0
220
0.0
230
1.0
 40
0.3464101615
 41
2.617993877991562
 42
3.665191429187749
  0
LINE
  5
242
330
1F
100
AcDbEntity
  8
0
  6
Continuous
 62
     7
370
    25
100
AcDbLine
 10
6887.6972913274
 20
3733.5390383111
 30
0.0
 11
6890.5257184521
 21
3736.3674654358
 31
0.0
  0
LINE
  5
243
330
1F
100
AcDbEntity
  8
0
  6
Continuous
 62
     7
370
    25
100
AcDbLine
 10
6891.9399320145
 20
3734.9532518735
 30
0.0
 11
6889.1115048898
 21
3732.1248247487
 31
0.0
  0
ELLIPSE
  5
244
330
1F
100
AcDbEntity
  8
0
  6
Continuous
 62
     7
370
    25
100
AcDbEllipse
 10
6891.9399320145
 20
3736.3674654358
 30
0.0
 11
4.082482904638709
 21
4.082482904638255
 31
0.0
210
0.0
220
0.0
230
1.0
 40
0.3464101615
 41
2.617993877991486
 42
3.665191429188662
  0
LINE
  5
245
330
1F
100
AcDbEntity
  8
0
  6
Continuous
 62
     7
370
    25
100
AcDbLine
 10
6910.9399320145
 20
3734.9532518735
 30
0.0
 11
6908.1115048898
 21
3732.1248247487
 31
0.0
  0
ELLIPSE
  5
246
330
1F
100
AcDbEntity
  8
0
  6
Continuous
 62
     7
370
    25
100
AcDbEllipse
 10
6910.9399320145
 20
3736.3674654358
 30
0.0
 11
4.0824829046378
 21
4.082482904638255
 31
0.0
210
0.0
220
0.0
230
1.0
 40
0.3464101615
 41
2.617993877991562
 42
3.665191429187749
  0
LINE
  5
247
330
1F
100
AcDbEntity
  8
0
  6
Continuous
 62
     7
370
    25
100
AcDbLine
 10
6906.6972913274
 20
3733.5390383111
 30
0.0
 11
6909.5257184521
 21
3736.3674654358
 31
0.0
  0
LINE
  5
248
330
1F
100
AcDbEntity
  8
0
  6
Continuous
 62
     7
370
    25
100
AcDbLine
 10
6852.1115048898
 20
3725.9532518735
 30
0.0
 11
6854.9399320145
 21
3723.1248247487
 31
0.0
  0
LINE
  5
249
330
1F
100
AcDbEntity
  8
0
  6
Continuous
 62
     7
370
    25
100
AcDbLine
 10
6853.5257184521
 20
3721.7106111863
 30
0.0
 11
6850.6972913274
 21
3724.5390383111
 31
0.0
  0
ELLIPSE
  5
24A
330
1F
100
AcDbEntity
  8
0
  6
Continuous
 62
     7
370
    25
100
AcDbEllipse
 10
6854.9399320145
 20
3721.7106111863
 30
0.0
 11
4.082482904638709
 21
-4.082482904638709
 31
0.0
210
0.0
220
0.0
230
1.0
 40
0.3464101615
 41
2.617993877991517
 42
3.665191429187711
  0
LINE
  5
24B
330
1F
100
AcDbEntity
  8
0
  6
Continuous
 62
     7
370
    25
100
AcDbLine
 10
6925.6972913274
 20
3727.3674654358
 30
0.0
 11
6928.5257184521
 21
3724.5390383111
 31
0.0
  0
LINE
  5
24C
330
1F
100
AcDbEntity
  8
0
  6
Continuous
 62
     7
370
    25
100
AcDbLine
 10
6927.1115048898
 20
3723.1248247487
 30
0.0
 11
6924.283077765
 21
3725.9532518735
 31
0.0
  0
ARC
  5
24D
330
1F
100
AcDbEntity
  8
0
  6
Continuous
 62
     7
370
    25
100
AcDbCircle
 10
6922.7780220338
 20
3728.8725211671
 30
0.0
 40
3.284406485603295
100
AcDbArc
 50
297.2737787002
 51
332.7262212997
  0
LINE
  5
24E
330
1F
100
AcDbEntity
  8
0
  6
Continuous
 62
     7
370
    25
100
AcDbLine
 10
6850.6972913274
 20
3704.5390383111
 30
0.0
 11
6853.5257184521
 21
3707.3674654358
 31
0.0
  0
LINE
  5
24F
330
1F
100
AcDbEntity
  8
0
  6
Continuous
 62
     7
370
    25
100
AcDbLine
 10
6854.9399320145
 20
3705.9532518734
 30
0.0
 11
6852.1115048898
 21
3703.1248247487
 31
0.0
  0
ELLIPSE
  5
250
330
1F
100
AcDbEntity
  8
0
  6
Continuous
 62
     7
370
    25
100
AcDbEllipse
 10
6854.9399320145
 20
3707.3674654358
 30
0.0
 11
4.082482904638709
 21
4.082482904638709
 31
0.0
210
0.0
220
0.0
230
1.0
 40
0.3464101615
 41
2.617993877991531
 42
3.665191429188309
  0
LINE
  5
251
330
1F
100
AcDbEntity
  8
0
  6
Continuous
 62
     7
370
    25
100
AcDbLine
 10
6924.283077765
 20
3703.1248247487
 30
0.0
 11
6927.1115048898
 21
3705.9532518734
 31
0.0
  0
LINE
  5
252
330
1F
100
AcDbEntity
  8
0
  6
Continuous
 62
     7
370
    25
100
AcDbLine
 10
6928.5257184521
 20
3704.5390383111
 30
0.0
 11
6925.6972913274
 21
3701.7106111863
 31
0.0
  0
ARC
  5
253
330
1F
100
AcDbEntity
  8
0
  6
Continuous
 62
     7
370
    25
100
AcDbCircle
 10
6922.7780220338
 20
3700.2055554551
 30
0.0
 40
3.284406485601495
100
AcDbArc
 50
27.2737787003
 51
62.7262212998
  0
LINE
  5
254
330
1F
100
AcDbEntity
  8
0
  6
Continuous
 62
     7
370
    25
100
AcDbLine
 10
6869.2622624849
 20
3453.3674654358
 30
0.0
 11
6870.4338353601
 21
3450.5390383111
 31
0.0
  0
LINE
  5
255
330
1F
100
AcDbEntity
  8
0
  6
Continuous
 62
     7
370
    25
100
AcDbLine
 10
6869.4338353601
 20
3450.1248247487
 30
0.0
 11
6868.2622624849
 21
3452.9532518735
 31
0.0
  0
ARC
  5
256
330
1F
100
AcDbEntity
  8
0
  6
Continuous
 62
     7
370
    25
100
AcDbCircle
 10
6867.6670261187
 20
3455.8044931437
 30
0.0
 40
2.912710612597015
100
AcDbArc
 50
281.7919326446
 51
303.2080673553
  0
LINE
  5
257
330
1F
100
AcDbEntity
  8
0
  6
Continuous
 62
     7
370
    25
100
AcDbLine
 10
6510.9607472947
 20
3452.9532518735
 30
0.0
 11
6509.7891744194
 21
3450.1248247487
 31
0.0
  0
LINE
  5
258
330
1F
100
AcDbEntity
  8
0
  6
Continuous
 62
     7
370
    25
100
AcDbLine
 10
6508.7891744194
 20
3450.5390383111
 30
0.0
 11
6509.9607472947
 21
3453.3674654358
 31
0.0
  0
ARC
  5
259
330
1F
100
AcDbEntity
  8
0
  6
Continuous
 62
     7
370
    25
100
AcDbCircle
 10
6511.5559836608
 20
3455.8044931437
 30
0.0
 40
2.912710612575499
100
AcDbArc
 50
236.7919326445
 51
258.2080673554
  0
LINE
  5
25A
330
1F
100
AcDbEntity
  8
0
  6
Continuous
 62
     7
370
    25
100
AcDbLine
 10
6843.5257184521
 20
3733.5390383111
 30
0.0
 11
6843.5257184521
 21
3796.7106111863
 31
0.0
  0
LINE
  5
25B
330
1F
100
AcDbEntity
  8
0
  6
Continuous
 62
     7
370
    25
100
AcDbLine
 10
6454.9399320145
 20
3798.1248247487
 30
0.0
 11
6819.283077765
 21
3798.1248247487
 31
0.0
  0
LINE
  5
25C
330
1F
100
AcDbEntity
  8
0
  6
Continuous
 62
     7
370
    25
100
AcDbLine
 10
6844.9399320145
 20
3798.1248247487
 30
0.0
 11
6924.283077765
 21
3798.1248247487
 31
0.0
  0
LINE
  5
25D
330
1F
100
AcDbEntity
  8
0
  6
Continuous
 62
     7
370
    25
100
AcDbLine
 10
6820.6972913274
 20
3796.7106111863
 30
0.0
 11
6820.6972913274
 21
3733.5390383111
 31
0.0
  0
LINE
  5
25E
330
1F
100
AcDbEntity
  8
0
  6
Continuous
 62
     7
370
    25
100
AcDbLine
 10
6453.5257184521
 20
3537.1761233009
 30
0.0
 11
6453.5257184521
 21
3796.7106111863
 31
0.0
  0
LINE
  5
25F
330
1F
100
AcDbEntity
  8
0
  6
Continuous
 62
     7
370
    25
100
AcDbLine
 10
6450.6972913274
 20
3537.1761233009
 30
0.0
 11
6453.5257184521
 21
3537.1761233009
 31
0.0
  0
LINE
  5
260
330
1F
100
AcDbEntity
  8
0
  6
Continuous
 62
     7
370
    25
100
AcDbLine
 10
6919.1115048898
 20
3791.9532518735
 30
0.0
 11
6908.1115048898
 21
3791.9532518735
 31
0.0
  0
LINE
  5
261
330
1F
100
AcDbEntity
  8
0
  6
Continuous
 62
     7
370
    25
100
AcDbLine
 10
6861.1115048898
 20
3791.9532518735
 30
0.0
 11
6850.1115048898
 21
3791.9532518735
 31
0.0
  0
LINE
  5
262
330
1F
100
AcDbEntity
  8
0
  6
Continuous
 62
     7
370
    25
100
AcDbLine
 10
6900.1115048898
 20
3791.9532518735
 30
0.0
 11
6889.1115048898
 21
3791.9532518735
 31
0.0
  0
LINE
  5
263
330
1F
100
AcDbEntity
  8
0
  6
Continuous
 62
     7
370
    25
100
AcDbLine
 10
6880.1115048898
 20
3791.9532518735
 30
0.0
 11
6869.1115048898
 21
3791.9532518735
 31
0.0
  0
LINE
  5
264
330
1F
100
AcDbEntity
  8
0
  6
Continuous
 62
     7
370
    25
100
AcDbLine
 10
6920.5257184521
 20
3733.5390383111
 30
0.0
 11
6920.5257184521
 21
3790.5390383111
 31
0.0
  0
LINE
  5
265
330
1F
100
AcDbEntity
  8
0
  6
Continuous
 62
     7
370
    25
100
AcDbLine
 10
6925.6972913274
 20
3796.7106111863
 30
0.0
 11
6925.6972913274
 21
3727.3674654358
 31
0.0
  0
LINE
  5
266
330
1F
100
AcDbEntity
  8
0
  6
Continuous
 62
     7
370
    25
100
AcDbLine
 10
6848.6972913274
 20
3790.5390383111
 30
0.0
 11
6848.6972913274
 21
3733.5390383111
 31
0.0
  0
LINE
  5
267
330
1F
100
AcDbEntity
  8
0
  6
Continuous
 62
     7
370
    25
100
AcDbLine
 10
6867.6972913274
 20
3790.5390383111
 30
0.0
 11
6867.6972913274
 21
3733.5390383111
 31
0.0
  0
LINE
  5
268
330
1F
100
AcDbEntity
  8
0
  6
Continuous
 62
     7
370
    25
100
AcDbLine
 10
6887.6972913274
 20
3790.5390383111
 30
0.0
 11
6887.6972913274
 21
3733.5390383111
 31
0.0
  0
LINE
  5
269
330
1F
100
AcDbEntity
  8
0
  6
Continuous
 62
     7
370
    25
100
AcDbLine
 10
6862.5257184521
 20
3733.5390383111
 30
0.0
 11
6862.5257184521
 21
3790.5390383111
 31
0.0
  0
LINE
  5
26A
330
1F
100
AcDbEntity
  8
0
  6
Continuous
 62
     7
370
    25
100
AcDbLine
 10
6901.5257184521
 20
3733.5390383111
 30
0.0
 11
6901.5257184521
 21
3790.5390383111
 31
0.0
  0
LINE
  5
26B
330
1F
100
AcDbEntity
  8
0
  6
Continuous
 62
     7
370
    25
100
AcDbLine
 10
6906.6972913274
 20
3790.5390383111
 30
0.0
 11
6906.6972913274
 21
3733.5390383111
 31
0.0
  0
LINE
  5
26C
330
1F
100
AcDbEntity
  8
0
  6
Continuous
 62
     7
370
    25
100
AcDbLine
 10
6881.5257184521
 20
3733.5390383111
 30
0.0
 11
6881.5257184521
 21
3790.5390383111
 31
0.0
  0
LINE
  5
26D
330
1F
100
AcDbEntity
  8
0
  6
Continuous
 62
     7
370
    25
100
AcDbLine
 10
6889.1115048898
 20
3732.1248247487
 30
0.0
 11
6900.1115048898
 21
3732.1248247487
 31
0.0
  0
LINE
  5
26E
330
1F
100
AcDbEntity
  8
0
  6
Continuous
 62
     7
370
    25
100
AcDbLine
 10
6869.1115048898
 20
3732.1248247487
 30
0.0
 11
6880.1115048898
 21
3732.1248247487
 31
0.0
  0
LINE
  5
26F
330
1F
100
AcDbEntity
  8
0
  6
Continuous
 62
     7
370
    25
100
AcDbLine
 10
6850.1115048898
 20
3732.1248247487
 30
0.0
 11
6861.1115048898
 21
3732.1248247487
 31
0.0
  0
LINE
  5
270
330
1F
100
AcDbEntity
  8
0
  6
Continuous
 62
     7
370
    25
100
AcDbLine
 10
6908.1115048898
 20
3732.1248247487
 30
0.0
 11
6919.1115048898
 21
3732.1248247487
 31
0.0
  0
LINE
  5
271
330
1F
100
AcDbEntity
  8
0
  6
Continuous
 62
     7
370
    25
100
AcDbLine
 10
6822.1115048898
 20
3732.1248247487
 30
0.0
 11
6842.1115048898
 21
3732.1248247487
 31
0.0
  0
LINE
  5
272
330
1F
100
AcDbEntity
  8
0
  6
Continuous
 62
     7
370
    25
100
AcDbLine
 10
6850.6972913274
 20
3724.5390383111
 30
0.0
 11
6850.6972913274
 21
3704.5390383111
 31
0.0
  0
LINE
  5
273
330
1F
100
AcDbEntity
  8
0
  6
Continuous
 62
     7
370
    25
100
AcDbLine
 10
6924.283077765
 20
3725.9532518735
 30
0.0
 11
6852.1115048898
 21
3725.9532518735
 31
0.0
  0
LINE
  5
274
330
1F
100
AcDbEntity
  8
0
  6
Continuous
 62
     7
370
    25
100
AcDbLine
 10
6852.1115048898
 20
3703.1248247487
 30
0.0
 11
6924.283077765
 21
3703.1248247487
 31
0.0
  0
LINE
  5
275
330
1F
100
AcDbEntity
  8
0
  6
Continuous
 62
     7
370
    25
100
AcDbLine
 10
6925.6972913274
 20
3701.7106111863
 30
0.0
 11
6925.6972913274
 21
3537.1761233009
 31
0.0
  0
LINE
  5
276
330
1F
100
AcDbEntity
  8
0
  6
Continuous
 62
     7
370
    25
100
AcDbLine
 10
6928.5257184521
 20
3537.1761233009
 30
0.0
 11
6925.6972913274
 21
3537.1761233009
 31
0.0
  0
ARC
  5
277
330
1F
100
AcDbEntity
  8
0
  6
Continuous
 62
     7
370
    25
100
AcDbCircle
 10
6859.6115048898
 20
3537.1761233009
 30
0.0
 40
66.08578643762769
100
AcDbArc
 50
315.0
 51
0.0
  0
LINE
  5
278
330
1F
100
AcDbEntity
  8
0
  6
Continuous
 62
     7
370
    25
100
AcDbLine
 10
6908.3412126199
 20
3488.4464155708
 30
0.0
 11
6906.3412126199
 21
3490.4464155708
 31
0.0
  0
ARC
  5
279
330
1F
100
AcDbEntity
  8
0
  6
Continuous
 62
     7
370
    25
100
AcDbCircle
 10
6519.6115048898
 20
3537.1761233009
 30
0.0
 40
66.08578643762672
100
AcDbArc
 50
180.0
 51
225.0
  0
LINE
  5
27A
330
1F
100
AcDbEntity
  8
0
  6
Continuous
 62
     7
370
    25
100
AcDbLine
 10
6470.8817971597
 20
3488.4464155708
 30
0.0
 11
6472.8817971597
 21
3490.4464155708
 31
0.0
  0
LINE
  5
27B
330
1F
100
AcDbEntity
  8
0
  6
Continuous
 62
     7
370
    25
100
AcDbLine
 10
6509.9607472947
 20
3453.3674654358
 30
0.0
 11
6472.8817971597
 21
3490.4464155708
 31
0.0
  0
LINE
  5
27C
330
1F
100
AcDbEntity
  8
0
  6
Continuous
 62
     7
370
    25
100
AcDbLine
 10
6906.3412126199
 20
3490.4464155708
 30
0.0
 11
6869.2622624849
 21
3453.3674654358
 31
0.0
  0
LINE
  5
27D
330
1F
100
AcDbEntity
  8
0
  6
Continuous
 62
     7
370
    25
100
AcDbLine
 10
6868.2622624849
 20
3452.9532518735
 30
0.0
 11
6510.9607472947
 21
3452.9532518735
 31
0.0
  0
LINE
  5
27E
330
1F
100
AcDbEntity
  8
0
  6
Continuous
 62
     7
370
    25
100
AcDbLine
 10
6819.283077765
 20
3796.7106111863
 30
0.0
 11
6820.6972913274
 21
3796.7106111863
 31
0.0
  0
LINE
  5
27F
330
1F
100
AcDbEntity
  8
0
  6
Continuous
 62
     7
370
    25
100
AcDbLine
 10
6819.283077765
 20
3796.7106111863
 30
0.0
 11
6819.283077765
 21
3798.1248247487
 31
0.0
  0
LINE
  5
280
330
1F
100
AcDbEntity
  8
0
  6
Continuous
 62
     7
370
    25
100
AcDbLine
 10
6819.283077765
 20
3733.5390383111
 30
0.0
 11
6819.283077765
 21
3796.7106111863
 31
0.0
  0
LINE
  5
281
330
1F
100
AcDbEntity
  8
0
  6
Continuous
 62
     7
370
    25
100
AcDbLine
 10
6819.283077765
 20
3733.5390383111
 30
0.0
 11
6820.6972913274
 21
3733.5390383111
 31
0.0
  0
LINE
  5
282
330
1F
100
AcDbEntity
  8
0
  6
Continuous
 62
     7
370
    25
100
AcDbLine
 10
6887.6972913274
 20
3790.5390383111
 30
0.0
 11
6886.283077765
 21
3790.5390383111
 31
0.0
  0
ELLIPSE
  5
283
330
1F
100
AcDbEntity
  8
0
  6
Continuous
 62
     7
370
    25
100
AcDbEllipse
 10
6891.9399320145
 20
3787.7106111863
 30
0.0
 11
-4.898979485566088
 21
4.898979485566998
 31
0.0
210
0.0
220
0.0
230
1.0
 40
0.5773502692
 41
5.75958653158122
 42
6.806784082778102
  0
LINE
  5
284
330
1F
100
AcDbEntity
  8
0
  6
Continuous
 62
     7
370
    25
100
AcDbLine
 10
6889.1115048898
 20
3791.9532518735
 30
0.0
 11
6889.1115048898
 21
3793.3674654358
 31
0.0
  0
ELLIPSE
  5
285
330
1F
100
AcDbEntity
  8
0
  6
Continuous
 62
     7
370
    25
100
AcDbEllipse
 10
6910.9399320145
 20
3787.7106111863
 30
0.0
 11
-4.898979485566997
 21
4.898979485566997
 31
0.0
210
0.0
220
0.0
230
1.0
 40
0.5773502692
 41
5.7595865315813
 42
6.80678408277803
  0
LINE
  5
286
330
1F
100
AcDbEntity
  8
0
  6
Continuous
 62
     7
370
    25
100
AcDbLine
 10
6908.1115048898
 20
3793.3674654358
 30
0.0
 11
6908.1115048898
 21
3791.9532518735
 31
0.0
  0
LINE
  5
287
330
1F
100
AcDbEntity
  8
0
  6
Continuous
 62
     7
370
    25
100
AcDbLine
 10
6905.283077765
 20
3790.5390383111
 30
0.0
 11
6906.6972913274
 21
3790.5390383111
 31
0.0
  0
LINE
  5
288
330
1F
100
AcDbEntity
  8
0
  6
Continuous
 62
     7
370
    25
100
AcDbLine
 10
6844.9399320145
 20
3796.7106111863
 30
0.0
 11
6844.9399320145
 21
3798.1248247487
 31
0.0
  0
LINE
  5
289
330
1F
100
AcDbEntity
  8
0
  6
Continuous
 62
     7
370
    25
100
AcDbLine
 10
6844.9399320145
 20
3796.7106111863
 30
0.0
 11
6843.5257184521
 21
3796.7106111863
 31
0.0
  0
LINE
  5
28A
330
1F
100
AcDbEntity
  8
0
  6
Continuous
 62
     7
370
    25
100
AcDbLine
 10
6454.9399320145
 20
3796.7106111863
 30
0.0
 11
6454.9399320145
 21
3798.1248247487
 31
0.0
  0
LINE
  5
28B
330
1F
100
AcDbEntity
  8
0
  6
Continuous
 62
     7
370
    25
100
AcDbLine
 10
6453.5257184521
 20
3796.7106111863
 30
0.0
 11
6454.9399320145
 21
3796.7106111863
 31
0.0
  0
LINE
  5
28C
330
1F
100
AcDbEntity
  8
0
  6
Continuous
 62
     7
370
    25
100
AcDbLine
 10
6454.9399320145
 20
3796.7106111863
 30
0.0
 11
6454.9399320145
 21
3537.1761233009
 31
0.0
  0
LINE
  5
28D
330
1F
100
AcDbEntity
  8
0
  6
Continuous
 62
     7
370
    25
100
AcDbLine
 10
6454.9399320145
 20
3537.1761233009
 30
0.0
 11
6453.5257184521
 21
3537.1761233009
 31
0.0
  0
LINE
  5
28E
330
1F
100
AcDbEntity
  8
0
  6
Continuous
 62
     7
370
    25
100
AcDbLine
 10
6844.9399320145
 20
3796.7106111863
 30
0.0
 11
6844.9399320145
 21
3733.5390383111
 31
0.0
  0
LINE
  5
28F
330
1F
100
AcDbEntity
  8
0
  6
Continuous
 62
     7
370
    25
100
AcDbLine
 10
6844.9399320145
 20
3733.5390383111
 30
0.0
 11
6843.5257184521
 21
3733.5390383111
 31
0.0
  0
LINE
  5
290
330
1F
100
AcDbEntity
  8
0
  6
Continuous
 62
     7
370
    25
100
AcDbLine
 10
6887.6972913274
 20
3733.5390383111
 30
0.0
 11
6886.283077765
 21
3733.5390383111
 31
0.0
  0
LINE
  5
291
330
1F
100
AcDbEntity
  8
0
  6
Continuous
 62
     7
370
    25
100
AcDbLine
 10
6886.283077765
 20
3733.5390383111
 30
0.0
 11
6886.283077765
 21
3790.5390383111
 31
0.0
  0
LINE
  5
292
330
1F
100
AcDbEntity
  8
0
  6
Continuous
 62
     7
370
    25
100
AcDbLine
 10
6905.283077765
 20
3733.5390383111
 30
0.0
 11
6905.283077765
 21
3790.5390383111
 31
0.0
  0
LINE
  5
293
330
1F
100
AcDbEntity
  8
0
  6
Continuous
 62
     7
370
    25
100
AcDbLine
 10
6905.283077765
 20
3733.5390383111
 30
0.0
 11
6906.6972913274
 21
3733.5390383111
 31
0.0
  0
LINE
  5
294
330
1F
100
AcDbEntity
  8
0
  6
Continuous
 62
     7
370
    25
100
AcDbLine
 10
6924.283077765
 20
3796.7106111863
 30
0.0
 11
6925.6972913274
 21
3796.7106111863
 31
0.0
  0
LINE
  5
295
330
1F
100
AcDbEntity
  8
0
  6
Continuous
 62
     7
370
    25
100
AcDbLine
 10
6924.283077765
 20
3796.7106111863
 30
0.0
 11
6924.283077765
 21
3798.1248247487
 31
0.0
  0
LINE
  5
296
330
1F
100
AcDbEntity
  8
0
  6
Continuous
 62
     7
370
    25
100
AcDbLine
 10
6924.283077765
 20
3727.3674654358
 30
0.0
 11
6924.283077765
 21
3796.7106111863
 31
0.0
  0
LINE
  5
297
330
1F
100
AcDbEntity
  8
0
  6
Continuous
 62
     7
370
    25
100
AcDbLine
 10
6925.6972913274
 20
3727.3674654358
 30
0.0
 11
6924.283077765
 21
3727.3674654358
 31
0.0
  0
LINE
  5
298
330
1F
100
AcDbEntity
  8
0
  6
Continuous
 62
     7
370
    25
100
AcDbLine
 10
6819.283077765
 20
3796.7106111863
 30
0.0
 11
6454.9399320145
 21
3796.7106111863
 31
0.0
  0
LINE
  5
299
330
1F
100
AcDbEntity
  8
0
  6
Continuous
 62
     7
370
    25
100
AcDbLine
 10
6863.9399320145
 20
3790.5390383111
 30
0.0
 11
6862.5257184521
 21
3790.5390383111
 31
0.0
  0
LINE
  5
29A
330
1F
100
AcDbEntity
  8
0
  6
Continuous
 62
     7
370
    25
100
AcDbLine
 10
6861.1115048898
 20
3793.3674654358
 30
0.0
 11
6861.1115048898
 21
3791.9532518735
 31
0.0
  0
ELLIPSE
  5
29B
330
1F
100
AcDbEntity
  8
0
  6
Continuous
 62
     7
370
    25
100
AcDbEllipse
 10
6858.283077765
 20
3787.7106111863
 30
0.0
 11
4.898979485566088
 21
4.898979485566998
 31
0.0
210
0.0
220
0.0
230
1.0
 40
0.5773502692
 41
5.759586531581195
 42
6.806784082777868
  0
LINE
  5
29C
330
1F
100
AcDbEntity
  8
0
  6
Continuous
 62
     7
370
    25
100
AcDbLine
 10
6882.9399320145
 20
3790.5390383111
 30
0.0
 11
6881.5257184521
 21
3790.5390383111
 31
0.0
  0
LINE
  5
29D
330
1F
100
AcDbEntity
  8
0
  6
Continuous
 62
     7
370
    25
100
AcDbLine
 10
6880.1115048898
 20
3793.3674654358
 30
0.0
 11
6880.1115048898
 21
3791.9532518735
 31
0.0
  0
ELLIPSE
  5
29E
330
1F
100
AcDbEntity
  8
0
  6
Continuous
 62
     7
370
    25
100
AcDbEllipse
 10
6877.283077765
 20
3787.7106111863
 30
0.0
 11
4.898979485566088
 21
4.898979485566542
 31
0.0
210
0.0
220
0.0
230
1.0
 40
0.5773502692
 41
5.759586531581155
 42
6.806784082777903
  0
LINE
  5
29F
330
1F
100
AcDbEntity
  8
0
  6
Continuous
 62
     7
370
    25
100
AcDbLine
 10
6902.9399320145
 20
3790.5390383111
 30
0.0
 11
6901.5257184521
 21
3790.5390383111
 31
0.0
  0
LINE
  5
2A0
330
1F
100
AcDbEntity
  8
0
  6
Continuous
 62
     7
370
    25
100
AcDbLine
 10
6900.1115048898
 20
3793.3674654358
 30
0.0
 11
6900.1115048898
 21
3791.9532518735
 31
0.0
  0
ELLIPSE
  5
2A1
330
1F
100
AcDbEntity
  8
0
  6
Continuous
 62
     7
370
    25
100
AcDbEllipse
 10
6897.283077765
 20
3787.7106111863
 30
0.0
 11
4.898979485566997
 21
4.898979485566997
 31
0.0
210
0.0
220
0.0
230
1.0
 40
0.5773502692
 41
5.75958653158115
 42
6.806784082777996
  0
LINE
  5
2A2
330
1F
100
AcDbEntity
  8
0
  6
Continuous
 62
     7
370
    25
100
AcDbLine
 10
6867.6972913274
 20
3790.5390383111
 30
0.0
 11
6866.283077765
 21
3790.5390383111
 31
0.0
  0
ELLIPSE
  5
2A3
330
1F
100
AcDbEntity
  8
0
  6
Continuous
 62
     7
370
    25
100
AcDbEllipse
 10
6871.9399320145
 20
3787.7106111863
 30
0.0
 11
-4.898979485566088
 21
4.898979485566542
 31
0.0
210
0.0
220
0.0
230
1.0
 40
0.5773502692
 41
5.759586531581508
 42
6.806784082778003
  0
LINE
  5
2A4
330
1F
100
AcDbEntity
  8
0
  6
Continuous
 62
     7
370
    25
100
AcDbLine
 10
6869.1115048898
 20
3791.9532518735
 30
0.0
 11
6869.1115048898
 21
3793.3674654358
 31
0.0
  0
LINE
  5
2A5
330
1F
100
AcDbEntity
  8
0
  6
Continuous
 62
     7
370
    25
100
AcDbLine
 10
6924.283077765
 20
3796.7106111863
 30
0.0
 11
6844.9399320145
 21
3796.7106111863
 31
0.0
  0
LINE
  5
2A6
330
1F
100
AcDbEntity
  8
0
  6
Continuous
 62
     7
370
    25
100
AcDbLine
 10
6848.6972913274
 20
3790.5390383111
 30
0.0
 11
6847.283077765
 21
3790.5390383111
 31
0.0
  0
ELLIPSE
  5
2A7
330
1F
100
AcDbEntity
  8
0
  6
Continuous
 62
     7
370
    25
100
AcDbEllipse
 10
6852.9399320145
 20
3787.7106111863
 30
0.0
 11
-4.898979485566997
 21
4.898979485566997
 31
0.0
210
0.0
220
0.0
230
1.0
 40
0.5773502692
 41
5.7595865315813
 42
6.806784082777938
  0
LINE
  5
2A8
330
1F
100
AcDbEntity
  8
0
  6
Continuous
 62
     7
370
    25
100
AcDbLine
 10
6850.1115048898
 20
3791.9532518735
 30
0.0
 11
6850.1115048898
 21
3793.3674654358
 31
0.0
  0
LINE
  5
2A9
330
1F
100
AcDbEntity
  8
0
  6
Continuous
 62
     7
370
    25
100
AcDbLine
 10
6850.1115048898
 20
3793.3674654358
 30
0.0
 11
6861.1115048898
 21
3793.3674654358
 31
0.0
  0
LINE
  5
2AA
330
1F
100
AcDbEntity
  8
0
  6
Continuous
 62
     7
370
    25
100
AcDbLine
 10
6920.5257184521
 20
3790.5390383111
 30
0.0
 11
6921.9399320145
 21
3790.5390383111
 31
0.0
  0
LINE
  5
2AB
330
1F
100
AcDbEntity
  8
0
  6
Continuous
 62
     7
370
    25
100
AcDbLine
 10
6919.1115048898
 20
3793.3674654358
 30
0.0
 11
6919.1115048898
 21
3791.9532518735
 31
0.0
  0
ELLIPSE
  5
2AC
330
1F
100
AcDbEntity
  8
0
  6
Continuous
 62
     7
370
    25
100
AcDbEllipse
 10
6916.283077765
 20
3787.7106111863
 30
0.0
 11
4.898979485566997
 21
4.898979485566997
 31
0.0
210
0.0
220
0.0
230
1.0
 40
0.5773502692
 41
5.759586531581127
 42
6.806784082777926
  0
LINE
  5
2AD
330
1F
100
AcDbEntity
  8
0
  6
Continuous
 62
     7
370
    25
100
AcDbLine
 10
6889.1115048898
 20
3793.3674654358
 30
0.0
 11
6900.1115048898
 21
3793.3674654358
 31
0.0
  0
LINE
  5
2AE
330
1F
100
AcDbEntity
  8
0
  6
Continuous
 62
     7
370
    25
100
AcDbLine
 10
6908.1115048898
 20
3793.3674654358
 30
0.0
 11
6919.1115048898
 21
3793.3674654358
 31
0.0
  0
LINE
  5
2AF
330
1F
100
AcDbEntity
  8
0
  6
Continuous
 62
     7
370
    25
100
AcDbLine
 10
6902.9399320145
 20
3790.5390383111
 30
0.0
 11
6902.9399320145
 21
3733.5390383111
 31
0.0
  0
LINE
  5
2B0
330
1F
100
AcDbEntity
  8
0
  6
Continuous
 62
     7
370
    25
100
AcDbLine
 10
6902.9399320145
 20
3733.5390383111
 30
0.0
 11
6901.5257184521
 21
3733.5390383111
 31
0.0
  0
LINE
  5
2B1
330
1F
100
AcDbEntity
  8
0
  6
Continuous
 62
     7
370
    25
100
AcDbLine
 10
6848.6972913274
 20
3733.5390383111
 30
0.0
 11
6847.283077765
 21
3733.5390383111
 31
0.0
  0
LINE
  5
2B2
330
1F
100
AcDbEntity
  8
0
  6
Continuous
 62
     7
370
    25
100
AcDbLine
 10
6847.283077765
 20
3733.5390383111
 30
0.0
 11
6847.283077765
 21
3790.5390383111
 31
0.0
  0
LINE
  5
2B3
330
1F
100
AcDbEntity
  8
0
  6
Continuous
 62
     7
370
    25
100
AcDbLine
 10
6882.9399320145
 20
3790.5390383111
 30
0.0
 11
6882.9399320145
 21
3733.5390383111
 31
0.0
  0
LINE
  5
2B4
330
1F
100
AcDbEntity
  8
0
  6
Continuous
 62
     7
370
    25
100
AcDbLine
 10
6882.9399320145
 20
3733.5390383111
 30
0.0
 11
6881.5257184521
 21
3733.5390383111
 31
0.0
  0
LINE
  5
2B5
330
1F
100
AcDbEntity
  8
0
  6
Continuous
 62
     7
370
    25
100
AcDbLine
 10
6867.6972913274
 20
3733.5390383111
 30
0.0
 11
6866.283077765
 21
3733.5390383111
 31
0.0
  0
LINE
  5
2B6
330
1F
100
AcDbEntity
  8
0
  6
Continuous
 62
     7
370
    25
100
AcDbLine
 10
6866.283077765
 20
3733.5390383111
 30
0.0
 11
6866.283077765
 21
3790.5390383111
 31
0.0
  0
LINE
  5
2B7
330
1F
100
AcDbEntity
  8
0
  6
Continuous
 62
     7
370
    25
100
AcDbLine
 10
6863.9399320145
 20
3790.5390383111
 30
0.0
 11
6863.9399320145
 21
3733.5390383111
 31
0.0
  0
LINE
  5
2B8
330
1F
100
AcDbEntity
  8
0
  6
Continuous
 62
     7
370
    25
100
AcDbLine
 10
6863.9399320145
 20
3733.5390383111
 30
0.0
 11
6862.5257184521
 21
3733.5390383111
 31
0.0
  0
LINE
  5
2B9
330
1F
100
AcDbEntity
  8
0
  6
Continuous
 62
     7
370
    25
100
AcDbLine
 10
6869.1115048898
 20
3793.3674654358
 30
0.0
 11
6880.1115048898
 21
3793.3674654358
 31
0.0
  0
LINE
  5
2BA
330
1F
100
AcDbEntity
  8
0
  6
Continuous
 62
     7
370
    25
100
AcDbLine
 10
6921.9399320145
 20
3790.5390383111
 30
0.0
 11
6921.9399320145
 21
3733.5390383111
 31
0.0
  0
LINE
  5
2BB
330
1F
100
AcDbEntity
  8
0
  6
Continuous
 62
     7
370
    25
100
AcDbLine
 10
6920.5257184521
 20
3733.5390383111
 30
0.0
 11
6921.9399320145
 21
3733.5390383111
 31
0.0
  0
ELLIPSE
  5
2BC
330
1F
100
AcDbEntity
  8
0
  6
Continuous
 62
     7
370
    25
100
AcDbEllipse
 10
6910.9399320145
 20
3736.3674654358
 30
0.0
 11
4.898979485566088
 21
4.898979485566088
 31
0.0
210
0.0
220
0.0
230
1.0
 40
0.5773502692
 41
2.617993877991429
 42
3.665191429188038
  0
LINE
  5
2BD
330
1F
100
AcDbEntity
  8
0
  6
Continuous
 62
     7
370
    25
100
AcDbLine
 10
6908.1115048898
 20
3732.1248247487
 30
0.0
 11
6908.1115048898
 21
3730.7106111863
 31
0.0
  0
LINE
  5
2BE
330
1F
100
AcDbEntity
  8
0
  6
Continuous
 62
     7
370
    25
100
AcDbLine
 10
6889.1115048898
 20
3730.7106111863
 30
0.0
 11
6889.1115048898
 21
3732.1248247487
 31
0.0
  0
ELLIPSE
  5
2BF
330
1F
100
AcDbEntity
  8
0
  6
Continuous
 62
     7
370
    25
100
AcDbEllipse
 10
6891.9399320145
 20
3736.3674654358
 30
0.0
 11
4.898979485566998
 21
4.898979485566088
 31
0.0
210
0.0
220
0.0
230
1.0
 40
0.5773502692
 41
2.617993877991545
 42
3.665191429188468
  0
LINE
  5
2C0
330
1F
100
AcDbEntity
  8
0
  6
Continuous
 62
     7
370
    25
100
AcDbLine
 10
6822.1115048898
 20
3730.7106111863
 30
0.0
 11
6822.1115048898
 21
3732.1248247487
 31
0.0
  0
ELLIPSE
  5
2C1
330
1F
100
AcDbEntity
  8
0
  6
Continuous
 62
     7
370
    25
100
AcDbEllipse
 10
6824.9399320145
 20
3736.3674654358
 30
0.0
 11
4.898979485566998
 21
4.898979485566088
 31
0.0
210
0.0
220
0.0
230
1.0
 40
0.5773502692
 41
2.617993877991569
 42
3.665191429188723
  0
LINE
  5
2C2
330
1F
100
AcDbEntity
  8
0
  6
Continuous
 62
     7
370
    25
100
AcDbLine
 10
6842.1115048898
 20
3730.7106111863
 30
0.0
 11
6842.1115048898
 21
3732.1248247487
 31
0.0
  0
ELLIPSE
  5
2C3
330
1F
100
AcDbEntity
  8
0
  6
Continuous
 62
     7
370
    25
100
AcDbEllipse
 10
6839.283077765
 20
3736.3674654358
 30
0.0
 11
-4.898979485566998
 21
4.898979485566088
 31
0.0
210
0.0
220
0.0
230
1.0
 40
0.5773502692
 41
2.617993877991243
 42
3.665191429187956
  0
LINE
  5
2C4
330
1F
100
AcDbEntity
  8
0
  6
Continuous
 62
     7
370
    25
100
AcDbLine
 10
6842.1115048898
 20
3730.7106111863
 30
0.0
 11
6822.1115048898
 21
3730.7106111863
 31
0.0
  0
LINE
  5
2C5
330
1F
100
AcDbEntity
  8
0
  6
Continuous
 62
     7
370
    25
100
AcDbLine
 10
6900.1115048898
 20
3732.1248247487
 30
0.0
 11
6900.1115048898
 21
3730.7106111863
 31
0.0
  0
ELLIPSE
  5
2C6
330
1F
100
AcDbEntity
  8
0
  6
Continuous
 62
     7
370
    25
100
AcDbEllipse
 10
6897.283077765
 20
3736.3674654358
 30
0.0
 11
-4.898979485566088
 21
4.898979485566088
 31
0.0
210
0.0
220
0.0
230
1.0
 40
0.5773502692
 41
2.617993877991533
 42
3.66519142918812
  0
LINE
  5
2C7
330
1F
100
AcDbEntity
  8
0
  6
Continuous
 62
     7
370
    25
100
AcDbLine
 10
6861.1115048898
 20
3732.1248247487
 30
0.0
 11
6861.1115048898
 21
3730.7106111863
 31
0.0
  0
ELLIPSE
  5
2C8
330
1F
100
AcDbEntity
  8
0
  6
Continuous
 62
     7
370
    25
100
AcDbEllipse
 10
6858.283077765
 20
3736.3674654358
 30
0.0
 11
-4.898979485566998
 21
4.898979485566088
 31
0.0
210
0.0
220
0.0
230
1.0
 40
0.5773502692
 41
2.617993877991243
 42
3.665191429187956
  0
LINE
  5
2C9
330
1F
100
AcDbEntity
  8
0
  6
Continuous
 62
     7
370
    25
100
AcDbLine
 10
6880.1115048898
 20
3732.1248247487
 30
0.0
 11
6880.1115048898
 21
3730.7106111863
 31
0.0
  0
ELLIPSE
  5
2CA
330
1F
100
AcDbEntity
  8
0
  6
Continuous
 62
     7
370
    25
100
AcDbEllipse
 10
6877.283077765
 20
3736.3674654358
 30
0.0
 11
-4.898979485566088
 21
4.898979485566088
 31
0.0
210
0.0
220
0.0
230
1.0
 40
0.5773502692
 41
2.617993877991417
 42
3.66519142918805
  0
LINE
  5
2CB
330
1F
100
AcDbEntity
  8
0
  6
Continuous
 62
     7
370
    25
100
AcDbLine
 10
6850.1115048898
 20
3730.7106111863
 30
0.0
 11
6850.1115048898
 21
3732.1248247487
 31
0.0
  0
ELLIPSE
  5
2CC
330
1F
100
AcDbEntity
  8
0
  6
Continuous
 62
     7
370
    25
100
AcDbEllipse
 10
6852.9399320145
 20
3736.3674654358
 30
0.0
 11
4.898979485566088
 21
4.898979485566088
 31
0.0
210
0.0
220
0.0
230
1.0
 40
0.5773502692
 41
2.617993877991522
 42
3.665191429188038
  0
LINE
  5
2CD
330
1F
100
AcDbEntity
  8
0
  6
Continuous
 62
     7
370
    25
100
AcDbLine
 10
6869.1115048898
 20
3730.7106111863
 30
0.0
 11
6869.1115048898
 21
3732.1248247487
 31
0.0
  0
ELLIPSE
  5
2CE
330
1F
100
AcDbEntity
  8
0
  6
Continuous
 62
     7
370
    25
100
AcDbEllipse
 10
6871.9399320145
 20
3736.3674654358
 30
0.0
 11
4.898979485566088
 21
4.898979485566088
 31
0.0
210
0.0
220
0.0
230
1.0
 40
0.5773502692
 41
2.617993877991522
 42
3.665191429188038
  0
LINE
  5
2CF
330
1F
100
AcDbEntity
  8
0
  6
Continuous
 62
     7
370
    25
100
AcDbLine
 10
6852.1115048898
 20
3725.9532518735
 30
0.0
 11
6852.1115048898
 21
3727.3674654358
 31
0.0
  0
LINE
  5
2D0
330
1F
100
AcDbEntity
  8
0
  6
Continuous
 62
     7
370
    25
100
AcDbLine
 10
6852.1115048898
 20
3727.3674654358
 30
0.0
 11
6924.283077765
 21
3727.3674654358
 31
0.0
  0
LINE
  5
2D1
330
1F
100
AcDbEntity
  8
0
  6
Continuous
 62
     7
370
    25
100
AcDbLine
 10
6924.283077765
 20
3725.9532518735
 30
0.0
 11
6924.283077765
 21
3727.3674654358
 31
0.0
  0
LINE
  5
2D2
330
1F
100
AcDbEntity
  8
0
  6
Continuous
 62
     7
370
    25
100
AcDbLine
 10
6880.1115048898
 20
3730.7106111863
 30
0.0
 11
6869.1115048898
 21
3730.7106111863
 31
0.0
  0
LINE
  5
2D3
330
1F
100
AcDbEntity
  8
0
  6
Continuous
 62
     7
370
    25
100
AcDbLine
 10
6861.1115048898
 20
3730.7106111863
 30
0.0
 11
6850.1115048898
 21
3730.7106111863
 31
0.0
  0
ELLIPSE
  5
2D4
330
1F
100
AcDbEntity
  8
0
  6
Continuous
 62
     7
370
    25
100
AcDbEllipse
 10
6916.283077765
 20
3736.3674654358
 30
0.0
 11
-4.898979485566088
 21
4.898979485566088
 31
0.0
210
0.0
220
0.0
230
1.0
 40
0.5773502692
 41
2.617993877991533
 42
3.665191429188213
  0
LINE
  5
2D5
330
1F
100
AcDbEntity
  8
0
  6
Continuous
 62
     7
370
    25
100
AcDbLine
 10
6919.1115048898
 20
3732.1248247487
 30
0.0
 11
6919.1115048898
 21
3730.7106111863
 31
0.0
  0
LINE
  5
2D6
330
1F
100
AcDbEntity
  8
0
  6
Continuous
 62
     7
370
    25
100
AcDbLine
 10
6900.1115048898
 20
3730.7106111863
 30
0.0
 11
6889.1115048898
 21
3730.7106111863
 31
0.0
  0
LINE
  5
2D7
330
1F
100
AcDbEntity
  8
0
  6
Continuous
 62
     7
370
    25
100
AcDbLine
 10
6919.1115048898
 20
3730.7106111863
 30
0.0
 11
6908.1115048898
 21
3730.7106111863
 31
0.0
  0
LINE
  5
2D8
330
1F
100
AcDbEntity
  8
0
  6
Continuous
 62
     7
370
    25
100
AcDbLine
 10
6850.6972913274
 20
3724.5390383111
 30
0.0
 11
6849.283077765
 21
3724.5390383111
 31
0.0
  0
ELLIPSE
  5
2D9
330
1F
100
AcDbEntity
  8
0
  6
Continuous
 62
     7
370
    25
100
AcDbEllipse
 10
6854.9399320145
 20
3721.7106111863
 30
0.0
 11
4.898979485566997
 21
-4.898979485566541
 31
0.0
210
0.0
220
0.0
230
1.0
 40
0.5773502692
 41
2.617993877991383
 42
3.665191429188043
  0
LINE
  5
2DA
330
1F
100
AcDbEntity
  8
0
  6
Continuous
 62
     7
370
    25
100
AcDbLine
 10
6850.6972913274
 20
3704.5390383111
 30
0.0
 11
6849.283077765
 21
3704.5390383111
 31
0.0
  0
LINE
  5
2DB
330
1F
100
AcDbEntity
  8
0
  6
Continuous
 62
     7
370
    25
100
AcDbLine
 10
6849.283077765
 20
3704.5390383111
 30
0.0
 11
6849.283077765
 21
3724.5390383111
 31
0.0
  0
LINE
  5
2DC
330
1F
100
AcDbEntity
  8
0
  6
Continuous
 62
     7
370
    25
100
AcDbLine
 10
6852.1115048898
 20
3703.1248247487
 30
0.0
 11
6852.1115048898
 21
3701.7106111863
 31
0.0
  0
ELLIPSE
  5
2DD
330
1F
100
AcDbEntity
  8
0
  6
Continuous
 62
     7
370
    25
100
AcDbEllipse
 10
6854.9399320145
 20
3707.3674654358
 30
0.0
 11
4.898979485566997
 21
4.898979485566541
 31
0.0
210
0.0
220
0.0
230
1.0
 40
0.5773502692
 41
2.617993877991401
 42
3.665191429188293
  0
LINE
  5
2DE
330
1F
100
AcDbEntity
  8
0
  6
Continuous
 62
     7
370
    25
100
AcDbLine
 10
6924.283077765
 20
3703.1248247487
 30
0.0
 11
6924.283077765
 21
3701.7106111863
 31
0.0
  0
LINE
  5
2DF
330
1F
100
AcDbEntity
  8
0
  6
Continuous
 62
     7
370
    25
100
AcDbLine
 10
6924.283077765
 20
3701.7106111863
 30
0.0
 11
6852.1115048898
 21
3701.7106111863
 31
0.0
  0
LINE
  5
2E0
330
1F
100
AcDbEntity
  8
0
  6
Continuous
 62
     7
370
    25
100
AcDbLine
 10
6925.6972913274
 20
3701.7106111863
 30
0.0
 11
6924.283077765
 21
3701.7106111863
 31
0.0
  0
LINE
  5
2E1
330
1F
100
AcDbEntity
  8
0
  6
Continuous
 62
     7
370
    25
100
AcDbLine
 10
6925.6972913274
 20
3537.1761233009
 30
0.0
 11
6924.283077765
 21
3537.1761233009
 31
0.0
  0
LINE
  5
2E2
330
1F
100
AcDbEntity
  8
0
  6
Continuous
 62
     7
370
    25
100
AcDbLine
 10
6924.283077765
 20
3537.1761233009
 30
0.0
 11
6924.283077765
 21
3701.7106111863
 31
0.0
  0
LINE
  5
2E3
330
1F
100
AcDbEntity
  8
0
  6
Continuous
 62
     7
370
    25
100
AcDbLine
 10
6906.3412126199
 20
3490.4464155708
 30
0.0
 11
6905.3412126199
 21
3491.4464155708
 31
0.0
  0
ARC
  5
2E4
330
1F
100
AcDbEntity
  8
0
  6
Continuous
 62
     7
370
    25
100
AcDbCircle
 10
6859.6115048898
 20
3537.1761233009
 30
0.0
 40
64.67157287525363
100
AcDbArc
 50
315.0
 51
0.0
  0
ARC
  5
2E5
330
1F
100
AcDbEntity
  8
0
  6
Continuous
 62
     7
370
    25
100
AcDbCircle
 10
6519.6115048898
 20
3537.1761233009
 30
0.0
 40
64.67157287525333
100
AcDbArc
 50
180.0
 51
225.0
  0
LINE
  5
2E6
330
1F
100
AcDbEntity
  8
0
  6
Continuous
 62
     7
370
    25
100
AcDbLine
 10
6473.8817971597
 20
3491.4464155708
 30
0.0
 11
6472.8817971597
 21
3490.4464155708
 31
0.0
  0
LINE
  5
2E7
330
1F
100
AcDbEntity
  8
0
  6
Continuous
 62
     7
370
    25
100
AcDbLine
 10
6869.2622624849
 20
3453.3674654358
 30
0.0
 11
6868.2622624849
 21
3454.3674654358
 31
0.0
  0
LINE
  5
2E8
330
1F
100
AcDbEntity
  8
0
  6
Continuous
 62
     7
370
    25
100
AcDbLine
 10
6868.2622624849
 20
3454.3674654358
 30
0.0
 11
6905.3412126199
 21
3491.4464155708
 31
0.0
  0
LINE
  5
2E9
330
1F
100
AcDbEntity
  8
0
  6
Continuous
 62
     7
370
    25
100
AcDbLine
 10
6473.8817971597
 20
3491.4464155708
 30
0.0
 11
6510.9607472947
 21
3454.3674654358
 31
0.0
  0
LINE
  5
2EA
330
1F
100
AcDbEntity
  8
0
  6
Continuous
 62
     7
370
    25
100
AcDbLine
 10
6510.9607472947
 20
3454.3674654358
 30
0.0
 11
6509.9607472947
 21
3453.3674654358
 31
0.0
  0
LINE
  5
2EB
330
1F
100
AcDbEntity
  8
0
  6
Continuous
 62
     7
370
    25
100
AcDbLine
 10
6868.2622624849
 20
3452.9532518735
 30
0.0
 11
6868.2622624849
 21
3454.3674654358
 31
0.0
  0
LINE
  5
2EC
330
1F
100
AcDbEntity
  8
0
  6
Continuous
 62
     7
370
    25
100
AcDbLine
 10
6510.9607472947
 20
3452.9532518735
 30
0.0
 11
6510.9607472947
 21
3454.3674654358
 31
0.0
  0
LINE
  5
2ED
330
1F
100
AcDbEntity
  8
0
  6
Continuous
 62
     7
370
    25
100
AcDbLine
 10
6510.9607472947
 20
3454.3674654358
 30
0.0
 11
6868.2622624849
 21
3454.3674654358
 31
0.0
  0
CIRCLE
  5
2EE
330
1F
100
AcDbEntity
  8
0
  6
Continuous
 62
     7
370
    25
100
AcDbCircle
 10
6689.6115048898
 20
3625.5390383111
 30
0.0
 40
160.7492887282642
  0
CIRCLE
  5
2EF
330
1F
100
AcDbEntity
  8
0
  6
Continuous
 62
     7
370
    25
100
AcDbCircle
 10
6689.6115048898
 20
3625.5390383111
 30
0.0
 40
158.7492984029918
  0
CIRCLE
  5
2F0
330
1F
100
AcDbEntity
  8
0
  6
Continuous
 62
     7
370
    25
100
AcDbCircle
 10
6689.6115048898
 20
3625.5390383111
 30
0.0
 40
4.0
  0
CIRCLE
  5
2F1
330
1F
100
AcDbEntity
  8
0
  6
Continuous
 62
     7
370
    25
100
AcDbCircle
 10
6689.6115048898
 20
3638.0390383111
 30
0.0
 40
4.000000000000295
  0
CIRCLE
  5
2F2
330
1F
100
AcDbEntity
  8
0
  6
Continuous
 62
     7
370
    25
100
AcDbCircle
 10
6678.7861873425
 20
3631.7890383111
 30
0.0
 40
3.999999999997538
  0
CIRCLE
  5
2F3
330
1F
100
AcDbEntity
  8
0
  6
Continuous
 62
     7
370
    25
100
AcDbCircle
 10
6678.7861873425
 20
3619.2890383111
 30
0.0
 40
4.00000000000129
  0
CIRCLE
  5
2F4
330
1F
100
AcDbEntity
  8
0
  6
Continuous
 62
     7
370
    25
100
AcDbCircle
 10
6689.6115048898
 20
3613.0390383111
 30
0.0
 40
4.00000000000033
  0
CIRCLE
  5
2F5
330
1F
100
AcDbEntity
  8
0
  6
Continuous
 62
     7
370
    25
100
AcDbCircle
 10
6700.4368224371
 20
3619.2890383111
 30
0.0
 40
3.999999999998726
  0
CIRCLE
  5
2F6
330
1F
100
AcDbEntity
  8
0
  6
Continuous
 62
     7
370
    25
100
AcDbCircle
 10
6700.4368224371
 20
3631.7890383111
 30
0.0
 40
4.00000000000016
  0
ARC
  5
2F7
330
1F
100
AcDbEntity
  8
0
  6
Continuous
 62
     7
370
    25
100
AcDbCircle
 10
6689.6115048898
 20
3625.5390383111
 30
0.0
 40
13.50000000000033
100
AcDbArc
 50
72.8537900011
 51
107.1462099989
  0
ARC
  5
2F8
330
1F
100
AcDbEntity
  8
0
  6
Continuous
 62
     7
370
    25
100
AcDbCircle
 10
6689.6115048898
 20
3625.5390383111
 30
0.0
 40
13.50000000000032
100
AcDbArc
 50
12.8537900011
 51
47.1462099989
  0
ARC
  5
2F9
330
1F
100
AcDbEntity
  8
0
  6
Continuous
 62
     7
370
    25
100
AcDbCircle
 10
6689.6115048898
 20
3625.5390383111
 30
0.0
 40
13.50000000000042
100
AcDbArc
 50
132.8537900011
 51
167.1462099989
  0
ARC
  5
2FA
330
1F
100
AcDbEntity
  8
0
  6
Continuous
 62
     7
370
    25
100
AcDbCircle
 10
6689.6115048898
 20
3625.5390383111
 30
0.0
 40
13.49999999999969
100
AcDbArc
 50
312.8537900011
 51
347.1462099989
  0
ARC
  5
2FB
330
1F
100
AcDbEntity
  8
0
  6
Continuous
 62
     7
370
    25
100
AcDbCircle
 10
6689.6115048898
 20
3625.5390383111
 30
0.0
 40
13.50000000000002
100
AcDbArc
 50
192.8537900011
 51
227.1462099989
  0
ARC
  5
2FC
330
1F
100
AcDbEntity
  8
0
  6
Continuous
 62
     7
370
    25
100
AcDbCircle
 10
6689.6115048898
 20
3625.5390383111
 30
0.0
 40
13.50000000000007
100
AcDbArc
 50
252.8537900011
 51
287.1462099989
  0
LINE
  5
2FD
330
1F
100
AcDbEntity
  8
0
  6
Continuous
 62
     7
370
    25
100
AcDbLine
 10
6441.1615048898
 20
3839.0390383111
 30
0.0
 11
6441.1615048898
 21
3838.4454966369
 31
0.0
  0
LINE
  5
2FE
330
1F
100
AcDbEntity
  8
0
  6
Continuous
 62
     7
370
    25
100
AcDbLine
 10
6441.1615048898
 20
3839.0390383111
 30
0.0
 11
6443.1115048898
 21
3839.0390383111
 31
0.0
  0
LINE
  5
2FF
330
1F
100
AcDbEntity
  8
0
  6
Continuous
 62
     7
370
    25
100
AcDbLine
 10
6439.6115048898
 20
3835.5390383111
 30
0.0
 11
6439.6115048898
 21
3837.5390383111
 31
0.0
  0
LINE
  5
300
330
1F
100
AcDbEntity
  8
0
  6
Continuous
 62
     7
370
    25
100
AcDbLine
 10
6440.2392235665
 20
3837.5390383111
 30
0.0
 11
6439.6115048898
 21
3837.5390383111
 31
0.0
  0
LINE
  5
301
330
1F
100
AcDbEntity
  8
0
  6
Continuous
 62
     7
370
    25
100
AcDbLine
 10
6522.0354669861
 20
3439.0390383111
 30
0.0
 11
6522.0354669861
 21
3170.3285912448
 31
0.0
  0
LWPOLYLINE
  5
302
330
1F
100
AcDbEntity
  8
0
  6
Continuous
 62
     7
370
    25
100
AcDbPolyline
 90
        5
 70
   128
 43
0.0
 10
6857.1830972517
 20
3169.1103112781
 10
6857.2468560533
 20
3202.8422604027
 10
6857.1875427934
 20
3236.5746585625
 10
6857.1875427934
 20
3304.0390382869
 10
6857.1875427934
 20
3439.0390383111
  0
ARC
  5
303
330
1F
100
AcDbEntity
  8
0
  6
Continuous
 62
     7
370
    25
100
AcDbCircle
 10
6689.6116893769
 20
3170.3816855705
 30
0.0
 40
167.5762308018602
100
AcDbArc
 50
180.0181534148
 51
359.5653018353
  0
LINE
  5
304
330
1F
100
AcDbEntity
  8
0
  6
Continuous
 62
     7
370
    25
100
AcDbLine
 10
6817.1115048898
 20
3249.4397405322
 30
0.0
 11
6817.1115048898
 21
3189.4397405322
 31
0.0
  0
ARC
  5
305
330
1F
100
AcDbEntity
  8
0
  6
Continuous
 62
     7
370
    25
100
AcDbCircle
 10
6689.6115048898
 20
3249.4397405322
 30
0.0
 40
127.5000000000009
100
AcDbArc
 50
0.0
 51
180.0
  0
LINE
  5
306
330
1F
100
AcDbEntity
  8
0
  6
Continuous
 62
     7
370
    25
100
AcDbLine
 10
6562.1115048898
 20
3189.4397405322
 30
0.0
 11
6562.1115048898
 21
3249.4397405322
 31
0.0
  0
ARC
  5
307
330
1F
100
AcDbEntity
  8
0
  6
Continuous
 62
     7
370
    25
100
AcDbCircle
 10
6689.6115048898
 20
3189.4397405322
 30
0.0
 40
127.5000000000009
100
AcDbArc
 50
180.0
 51
0.0
  0
ARC
  5
308
330
1F
100
AcDbEntity
  8
0
  6
Continuous
 62
     7
370
    25
100
AcDbCircle
 10
6689.6115048898
 20
3249.4397405322
 30
0.0
 40
122.5
100
AcDbArc
 50
0.0
 51
180.0
  0
LINE
  5
309
330
1F
100
AcDbEntity
  8
0
  6
Continuous
 62
     7
370
    25
100
AcDbLine
 10
6567.1115048898
 20
3249.4397405322
 30
0.0
 11
6562.1115048898
 21
3249.4397405322
 31
0.0
  0
LINE
  5
30A
330
1F
100
AcDbEntity
  8
0
  6
Continuous
 62
     7
370
    25
100
AcDbLine
 10
6812.1115048898
 20
3249.4397405322
 30
0.0
 11
6817.1115048898
 21
3249.4397405322
 31
0.0
  0
LINE
  5
30B
330
1F
100
AcDbEntity
  8
0
  6
Continuous
 62
     7
370
    25
100
AcDbLine
 10
6812.1115048898
 20
3189.4397405322
 30
0.0
 11
6812.1115048898
 21
3249.4397405322
 31
0.0
  0
LINE
  5
30C
330
1F
100
AcDbEntity
  8
0
  6
Continuous
 62
     7
370
    25
100
AcDbLine
 10
6817.1115048898
 20
3189.4397405322
 30
0.0
 11
6812.1115048898
 21
3189.4397405322
 31
0.0
  0
LINE
  5
30D
330
1F
100
AcDbEntity
  8
0
  6
Continuous
 62
     7
370
    25
100
AcDbLine
 10
6567.1115048898
 20
3249.4397405322
 30
0.0
 11
6567.1115048898
 21
3189.4397405322
 31
0.0
  0
LINE
  5
30E
330
1F
100
AcDbEntity
  8
0
  6
Continuous
 62
     7
370
    25
100
AcDbLine
 10
6562.1115048898
 20
3189.4397405322
 30
0.0
 11
6567.1115048898
 21
3189.4397405322
 31
0.0
  0
ARC
  5
30F
330
1F
100
AcDbEntity
  8
0
  6
Continuous
 62
     7
370
    25
100
AcDbCircle
 10
6689.6115048898
 20
3189.4397405322
 30
0.0
 40
122.5
100
AcDbArc
 50
180.0
 51
0.0
  0
CIRCLE
  5
310
330
1F
100
AcDbEntity
  8
0
  6
Continuous
 62
     7
370
    25
100
AcDbCircle
 10
6689.6084429341
 20
3249.4396067365
 30
0.0
 40
44.99986630844596
  0
CIRCLE
  5
311
330
1F
100
AcDbEntity
  8
0
  6
Continuous
 62
     7
370
    25
100
AcDbCircle
 10
6689.6115048898
 20
3249.4397405322
 30
0.0
 40
44.5
  0
LINE
  5
312
330
1F
100
AcDbEntity
  8
0
  6
Continuous
 62
     8
370
    25
100
AcDbLine
 10
6522.0354669861
 20
3170.3285912448
 30
0.0
 11
6512.0354669861
 21
3170.3285912448
 31
0.0
  0
LINE
  5
313
330
1F
100
AcDbEntity
  8
0
  6
Continuous
 62
     8
370
    25
100
AcDbLine
 10
6857.1830972517
 20
3169.1103112781
 30
0.0
 11
6867.1828308372
 21
3169.0373411456
 31
0.0
  0
ENDSEC
  0
SECTION
  2
OBJECTS
  0
DICTIONARY
  5
C
330
0
100
AcDbDictionary
281
     1
  3
ACAD_GROUP
350
D
  3
ACAD_LAYOUT
350
1A
  3
ACAD_MLINESTYLE
350
17
  3
ACAD_PLOTSETTINGS
350
19
  3
ACAD_PLOTSTYLENAME
350
E
  3
ACAD_SCALELIST
350
47
  3
DWGPROPS
350
314
  0
DICTIONARY
  5
D
102
{ACAD_REACTORS
330
C
102
}
330
C
100
AcDbDictionary
281
     1
  0
DICTIONARY
  5
1A
102
{ACAD_REACTORS
330
C
102
}
330
C
100
AcDbDictionary
281
     1
  3
Layout1
350
1E
  3
Layout2
350
26
  3
Model
350
22
  0
DICTIONARY
  5
17
102
{ACAD_REACTORS
330
C
102
}
330
C
100
AcDbDictionary
281
     1
  3
Standard
350
18
  0
DICTIONARY
  5
19
102
{ACAD_REACTORS
330
C
102
}
330
C
100
AcDbDictionary
281
     1
  0
ACDBDICTIONARYWDFLT
  5
E
102
{ACAD_REACTORS
330
C
102
}
330
C
100
AcDbDictionary
281
     1
  3
Normal
350
F
100
AcDbDictionaryWithDefault
340
F
  0
DICTIONARY
  5
47
102
{ACAD_REACTORS
330
C
102
}
330
C
100
AcDbDictionary
281
     1
  3
A0
350
48
  3
A1
350
49
  3
A2
350
4A
  3
A3
350
4B
  3
A4
350
4C
  3
A5
350
4D
  3
A6
350
4E
  3
A7
350
4F
  3
A8
350
50
  3
A9
350
51
  3
B0
350
52
  3
B1
350
53
  3
B2
350
54
  3
B3
350
55
  3
B4
350
56
  3
B5
350
57
  3
B6
350
58
  3
B7
350
59
  3
B8
350
5A
  3
B9
350
5B
  3
C0
350
5C
  3
C1
350
5D
  3
C2
350
5E
  3
C3
350
5F
  3
C4
350
60
  3
C5
350
61
  3
C6
350
62
  3
C7
350
63
  3
C8
350
64
  3
C9
350
65
  3
D0
350
66
  3
D1
350
67
  3
D2
350
68
  0
XRECORD
  5
314
102
{ACAD_REACTORS
330
C
102
}
330
C
100
AcDbXrecord
280
     1
  1
DWGPROPS COOKIE
  2

  3

  4

  6

  7

  8
radek.stransky
  9

300
=
301
=
302
=
303
=
304
=
305
=
306
=
307
=
308
=
309
=
 40
0.0
 41
2459152.253579653
 42
2459152.253580185
  1

 90
        0
  0
LAYOUT
  5
1E
102
{ACAD_REACTORS
330
1A
102
}
330
1A
100
AcDbPlotSettings
  1

  2
none_device
  4

  6

 40
0.0
 41
0.0
 42
0.0
 43
0.0
 44
0.0
 45
0.0
 46
0.0
 47
0.0
 48
0.0
 49
0.0
140
0.0
141
0.0
142
1.0
143
1.0
 70
   688
 72
     1
 73
     0
 74
     5
  7

 75
    16
147
1.0
148
0.0
149
0.0
100
AcDbLayout
  1
Layout1
 70
     1
 71
     1
 10
0.0
 20
0.0
 11
420.0
 21
297.0
 12
0.0
 22
0.0
 32
0.0
 14
1.0000000000E+20
 24
1.0000000000E+20
 34
1.0000000000E+20
 15
-1.0000000000E+20
 25
-1.0000000000E+20
 35
-1.0000000000E+20
146
0.0
 13
0.0
 23
0.0
 33
0.0
 16
1.0
 26
0.0
 36
0.0
 17
0.0
 27
1.0
 37
0.0
 76
     0
330
1B
  0
LAYOUT
  5
26
102
{ACAD_REACTORS
330
1A
102
}
330
1A
100
AcDbPlotSettings
  1

  2
none_device
  4

  6

 40
0.0
 41
0.0
 42
0.0
 43
0.0
 44
0.0
 45
0.0
 46
0.0
 47
0.0
 48
0.0
 49
0.0
140
0.0
141
0.0
142
1.0
143
1.0
 70
   688
 72
     1
 73
     0
 74
     5
  7

 75
    16
147
1.0
148
0.0
149
0.0
100
AcDbLayout
  1
Layout2
 70
     1
 71
     2
 10
0.0
 20
0.0
 11
0.0
 21
0.0
 12
0.0
 22
0.0
 32
0.0
 14
0.0
 24
0.0
 34
0.0
 15
0.0
 25
0.0
 35
0.0
146
0.0
 13
0.0
 23
0.0
 33
0.0
 16
1.0
 26
0.0
 36
0.0
 17
0.0
 27
1.0
 37
0.0
 76
     0
330
23
  0
LAYOUT
  5
22
102
{ACAD_REACTORS
330
1A
102
}
330
1A
100
AcDbPlotSettings
  1

  2
none_device
  4
Letter_(8.50_x_11.00_Inches)
  6

 40
6.35
 41
6.35
 42
6.35000508
 43
6.35000508
 44
215.9
 45
279.4
 46
0.0
 47
0.0
 48
0.0
 49
0.0
140
0.0
141
0.0
142
1.0
143
1.0
 70
  1712
 72
     1
 73
     0
 74
     0
  7

 75
     0
147
1.0
148
0.0
149
0.0
100
AcDbLayout
  1
Model
 70
     1
 71
     0
 10
0.0
 20
0.0
 11
20000.0
 21
10000.0
 12
0.0
 22
0.0
 32
0.0
 14
0.0
 24
0.0
 34
0.0
 15
20000.0
 25
10000.0
 35
0.0
146
0.0
 13
0.0
 23
0.0
 33
0.0
 16
1.0
 26
0.0
 36
0.0
 17
0.0
 27
1.0
 37
0.0
 76
     0
330
1F
331
29
  0
MLINESTYLE
  5
18
102
{ACAD_REACTORS
330
17
102
}
330
17
100
AcDbMlineStyle
  2
Standard
 70
     0
  3

 62
   256
 51
90.0
 52
90.0
 71
     2
 49
0.5
 62
   256
  6
BYLAYER
 49
-0.5
 62
   256
  6
BYLAYER
  0
ACDBPLACEHOLDER
  5
F
102
{ACAD_REACTORS
330
E
102
}
330
E
  0
SCALE
  5
48
102
{ACAD_REACTORS
330
47
102
}
330
47
100
AcDbScale
 70
     0
300
1:1
140
1.0
141
1.0
290
     1
  0
SCALE
  5
49
102
{ACAD_REACTORS
330
47
102
}
330
47
100
AcDbScale
 70
     0
300
1:2
140
1.0
141
2.0
290
     0
  0
SCALE
  5
4A
102
{ACAD_REACTORS
330
47
102
}
330
47
100
AcDbScale
 70
     0
300
1:4
140
1.0
141
4.0
290
     0
  0
SCALE
  5
4B
102
{ACAD_REACTORS
330
47
102
}
330
47
100
AcDbScale
 70
     0
300
1:5
140
1.0
141
5.0
290
     0
  0
SCALE
  5
4C
102
{ACAD_REACTORS
330
47
102
}
330
47
100
AcDbScale
 70
     0
300
1:8
140
1.0
141
8.0
290
     0
  0
SCALE
  5
4D
102
{ACAD_REACTORS
330
47
102
}
330
47
100
AcDbScale
 70
     0
300
1:10
140
1.0
141
10.0
290
     0
  0
SCALE
  5
4E
102
{ACAD_REACTORS
330
47
102
}
330
47
100
AcDbScale
 70
     0
300
1:16
140
1.0
141
16.0
290
     0
  0
SCALE
  5
4F
102
{ACAD_REACTORS
330
47
102
}
330
47
100
AcDbScale
 70
     0
300
1:20
140
1.0
141
20.0
290
     0
  0
SCALE
  5
50
102
{ACAD_REACTORS
330
47
102
}
330
47
100
AcDbScale
 70
     0
300
1:30
140
1.0
141
30.0
290
     0
  0
SCALE
  5
51
102
{ACAD_REACTORS
330
47
102
}
330
47
100
AcDbScale
 70
     0
300
1:40
140
1.0
141
40.0
290
     0
  0
SCALE
  5
52
102
{ACAD_REACTORS
330
47
102
}
330
47
100
AcDbScale
 70
     0
300
1:50
140
1.0
141
50.0
290
     0
  0
SCALE
  5
53
102
{ACAD_REACTORS
330
47
102
}
330
47
100
AcDbScale
 70
     0
300
1:100
140
1.0
141
100.0
290
     0
  0
SCALE
  5
54
102
{ACAD_REACTORS
330
47
102
}
330
47
100
AcDbScale
 70
     0
300
2:1
140
2.0
141
1.0
290
     0
  0
SCALE
  5
55
102
{ACAD_REACTORS
330
47
102
}
330
47
100
AcDbScale
 70
     0
300
4:1
140
4.0
141
1.0
290
     0
  0
SCALE
  5
56
102
{ACAD_REACTORS
330
47
102
}
330
47
100
AcDbScale
 70
     0
300
8:1
140
8.0
141
1.0
290
     0
  0
SCALE
  5
57
102
{ACAD_REACTORS
330
47
102
}
330
47
100
AcDbScale
 70
     0
300
10:1
140
10.0
141
1.0
290
     0
  0
SCALE
  5
58
102
{ACAD_REACTORS
330
47
102
}
330
47
100
AcDbScale
 70
     0
300
100:1
140
100.0
141
1.0
290
     0
  0
SCALE
  5
59
102
{ACAD_REACTORS
330
47
102
}
330
47
100
AcDbScale
 70
     0
300
1/128" = 1'-0"
140
0.0078125
141
12.0
290
     0
  0
SCALE
  5
5A
102
{ACAD_REACTORS
330
47
102
}
330
47
100
AcDbScale
 70
     0
300
1/64" = 1'-0"
140
0.015625
141
12.0
290
     0
  0
SCALE
  5
5B
102
{ACAD_REACTORS
330
47
102
}
330
47
100
AcDbScale
 70
     0
300
1/32" = 1'-0"
140
0.03125
141
12.0
290
     0
  0
SCALE
  5
5C
102
{ACAD_REACTORS
330
47
102
}
330
47
100
AcDbScale
 70
     0
300
1/16" = 1'-0"
140
0.0625
141
12.0
290
     0
  0
SCALE
  5
5D
102
{ACAD_REACTORS
330
47
102
}
330
47
100
AcDbScale
 70
     0
300
3/32" = 1'-0"
140
0.09375
141
12.0
290
     0
  0
SCALE
  5
5E
102
{ACAD_REACTORS
330
47
102
}
330
47
100
AcDbScale
 70
     0
300
1/8" = 1'-0"
140
0.125
141
12.0
290
     0
  0
SCALE
  5
5F
102
{ACAD_REACTORS
330
47
102
}
330
47
100
AcDbScale
 70
     0
300
3/16" = 1'-0"
140
0.1875
141
12.0
290
     0
  0
SCALE
  5
60
102
{ACAD_REACTORS
330
47
102
}
330
47
100
AcDbScale
 70
     0
300
1/4" = 1'-0"
140
0.25
141
12.0
290
     0
  0
SCALE
  5
61
102
{ACAD_REACTORS
330
47
102
}
330
47
100
AcDbScale
 70
     0
300
3/8" = 1'-0"
140
0.375
141
12.0
290
     0
  0
SCALE
  5
62
102
{ACAD_REACTORS
330
47
102
}
330
47
100
AcDbScale
 70
     0
300
1/2" = 1'-0"
140
0.5
141
12.0
290
     0
  0
SCALE
  5
63
102
{ACAD_REACTORS
330
47
102
}
330
47
100
AcDbScale
 70
     0
300
3/4" = 1'-0"
140
0.75
141
12.0
290
     0
  0
SCALE
  5
64
102
{ACAD_REACTORS
330
47
102
}
330
47
100
AcDbScale
 70
     0
300
1" = 1'-0"
140
1.0
141
12.0
290
     0
  0
SCALE
  5
65
102
{ACAD_REACTORS
330
47
102
}
330
47
100
AcDbScale
 70
     0
300
1-1/2" = 1'-0"
140
1.5
141
12.0
290
     0
  0
SCALE
  5
66
102
{ACAD_REACTORS
330
47
102
}
330
47
100
AcDbScale
 70
     0
300
3" = 1'-0"
140
3.0
141
12.0
290
     0
  0
SCALE
  5
67
102
{ACAD_REACTORS
330
47
102
}
330
47
100
AcDbScale
 70
     0
300
6" = 1'-0"
140
6.0
141
12.0
290
     0
  0
SCALE
  5
68
102
{ACAD_REACTORS
330
47
102
}
330
47
100
AcDbScale
 70
     0
300
1'-0" = 1'-0"
140
12.0
141
12.0
290
     0
  0
ENDSEC
  0
EOF
