  0
SECTION
  2
HEADER
  9
$ACADVER
  1
AC1015
  9
$ACADMAINTVER
 70
     6
  9
$DWGCODEPAGE
  3
ANSI_1250
  9
$INSBASE
 10
0.0
 20
0.0
 30
0.0
  9
$EXTMIN
 10
0.0
 20
0.0
 30
0.0
  9
$EXTMAX
 10
20000.0
 20
10000.0
 30
0.0
  9
$LIMMIN
 10
0.0
 20
0.0
  9
$LIMMAX
 10
20000.0
 20
10000.0
  9
$ORTHOMODE
 70
     0
  9
$REGENMODE
 70
     1
  9
$FILLMODE
 70
     1
  9
$QTEXTMODE
 70
     0
  9
$MIRRTEXT
 70
     1
  9
$LTSCALE
 40
1.0
  9
$ATTMODE
 70
     1
  9
$TEXTSIZE
 40
2.0
  9
$TRACEWID
 40
1.0
  9
$TEXTSTYLE
  7
Standard
  9
$CLAYER
  8
0
  9
$CELTYPE
  6
ByLayer
  9
$CECOLOR
 62
   256
  9
$CELTSCALE
 40
1.0
  9
$DISPSILH
 70
     0
  9
$DIMSCALE
 40
1.0
  9
$DIMASZ
 40
2.0
  9
$DIMEXO
 40
1.0
  9
$DIMDLI
 40
3.75
  9
$DIMRND
 40
0.0
  9
$DIMDLE
 40
0.0
  9
$DIMEXE
 40
1.0
  9
$DIMTP
 40
0.0
  9
$DIMTM
 40
0.0
  9
$DIMTXT
 40
2.0
  9
$DIMCEN
 40
2.5
  9
$DIMTSZ
 40
0.0
  9
$DIMTOL
 70
     0
  9
$DIMLIM
 70
     0
  9
$DIMTIH
 70
     1
  9
$DIMTOH
 70
     1
  9
$DIMSE1
 70
     0
  9
$DIMSE2
 70
     0
  9
$DIMTAD
 70
     1
  9
$DIMZIN
 70
     0
  9
$DIMBLK
  1

  9
$DIMASO
 70
     1
  9
$DIMSHO
 70
     1
  9
$DIMPOST
  1

  9
$DIMAPOST
  1

  9
$DIMALT
 70
     0
  9
$DIMALTD
 70
     3
  9
$DIMALTF
 40
0.0393700787
  9
$DIMLFAC
 40
1.0
  9
$DIMTOFL
 70
     1
  9
$DIMTVP
 40
0.0
  9
$DIMTIX
 70
     0
  9
$DIMSOXD
 70
     0
  9
$DIMSAH
 70
     0
  9
$DIMBLK1
  1

  9
$DIMBLK2
  1

  9
$DIMSTYLE
  2
ISO-25
  9
$DIMCLRD
 70
     0
  9
$DIMCLRE
 70
     0
  9
$DIMCLRT
 70
     0
  9
$DIMTFAC
 40
1.0
  9
$DIMGAP
 40
1.524
  9
$DIMJUST
 70
     0
  9
$DIMSD1
 70
     0
  9
$DIMSD2
 70
     0
  9
$DIMTOLJ
 70
     0
  9
$DIMTZIN
 70
     0
  9
$DIMALTZ
 70
     0
  9
$DIMALTTZ
 70
     0
  9
$DIMUPT
 70
     0
  9
$DIMDEC
 70
     2
  9
$DIMTDEC
 70
     0
  9
$DIMALTU
 70
     2
  9
$DIMALTTD
 70
     3
  9
$DIMTXSTY
  7
Standard
  9
$DIMAUNIT
 70
     0
  9
$DIMADEC
 70
     2
  9
$DIMALTRND
 40
0.0
  9
$DIMAZIN
 70
     0
  9
$DIMDSEP
 70
    44
  9
$DIMATFIT
 70
     3
  9
$DIMFRAC
 70
     0
  9
$DIMLDRBLK
  1

  9
$DIMLUNIT
 70
     2
  9
$DIMLWD
 70
    -2
  9
$DIMLWE
 70
    -2
  9
$DIMTMOVE
 70
     0
  9
$LUNITS
 70
     2
  9
$LUPREC
 70
     3
  9
$SKETCHINC
 40
1.0
  9
$FILLETRAD
 40
10.0
  9
$AUNITS
 70
     0
  9
$AUPREC
 70
     2
  9
$MENU
  1
.
  9
$ELEVATION
 40
0.0
  9
$PELEVATION
 40
0.0
  9
$THICKNESS
 40
0.0
  9
$LIMCHECK
 70
     0
  9
$CHAMFERA
 40
0.0
  9
$CHAMFERB
 40
0.0
  9
$CHAMFERC
 40
0.0
  9
$CHAMFERD
 40
0.0
  9
$SKPOLY
 70
     0
  9
$TDCREATE
 40
2459110.314972488
  9
$TDUCREATE
 40
2459110.231639155
  9
$TDUPDATE
 40
2459110.314972604
  9
$TDUUPDATE
 40
2459110.231639271
  9
$TDINDWG
 40
0.0000000116
  9
$TDUSRTIMER
 40
0.0000000116
  9
$USRTIMER
 70
     1
  9
$ANGBASE
 50
0.0
  9
$ANGDIR
 70
     0
  9
$PDMODE
 70
     0
  9
$PDSIZE
 40
-1.0
  9
$PLINEWID
 40
0.0
  9
$SPLFRAME
 70
     0
  9
$SPLINETYPE
 70
     6
  9
$SPLINESEGS
 70
     8
  9
$HANDSEED
  5
136
  9
$SURFTAB1
 70
     6
  9
$SURFTAB2
 70
     6
  9
$SURFTYPE
 70
     6
  9
$SURFU
 70
     6
  9
$SURFV
 70
     6
  9
$UCSBASE
  2

  9
$UCSNAME
  2

  9
$UCSORG
 10
0.0
 20
0.0
 30
0.0
  9
$UCSXDIR
 10
1.0
 20
0.0
 30
0.0
  9
$UCSYDIR
 10
0.0
 20
1.0
 30
0.0
  9
$UCSORTHOREF
  2

  9
$UCSORTHOVIEW
 70
     0
  9
$UCSORGTOP
 10
0.0
 20
0.0
 30
0.0
  9
$UCSORGBOTTOM
 10
0.0
 20
0.0
 30
0.0
  9
$UCSORGLEFT
 10
0.0
 20
0.0
 30
0.0
  9
$UCSORGRIGHT
 10
0.0
 20
0.0
 30
0.0
  9
$UCSORGFRONT
 10
0.0
 20
0.0
 30
0.0
  9
$UCSORGBACK
 10
0.0
 20
0.0
 30
0.0
  9
$PUCSBASE
  2

  9
$PUCSNAME
  2

  9
$PUCSORG
 10
0.0
 20
0.0
 30
0.0
  9
$PUCSXDIR
 10
1.0
 20
0.0
 30
0.0
  9
$PUCSYDIR
 10
0.0
 20
1.0
 30
0.0
  9
$PUCSORTHOREF
  2

  9
$PUCSORTHOVIEW
 70
     0
  9
$PUCSORGTOP
 10
0.0
 20
0.0
 30
0.0
  9
$PUCSORGBOTTOM
 10
0.0
 20
0.0
 30
0.0
  9
$PUCSORGLEFT
 10
0.0
 20
0.0
 30
0.0
  9
$PUCSORGRIGHT
 10
0.0
 20
0.0
 30
0.0
  9
$PUCSORGFRONT
 10
0.0
 20
0.0
 30
0.0
  9
$PUCSORGBACK
 10
0.0
 20
0.0
 30
0.0
  9
$USERI1
 70
     0
  9
$USERI2
 70
     0
  9
$USERI3
 70
     0
  9
$USERI4
 70
     0
  9
$USERI5
 70
     0
  9
$USERR1
 40
0.0
  9
$USERR2
 40
0.0
  9
$USERR3
 40
0.0
  9
$USERR4
 40
0.0
  9
$USERR5
 40
0.0
  9
$WORLDVIEW
 70
     1
  9
$SHADEDGE
 70
     3
  9
$SHADEDIF
 70
    70
  9
$TILEMODE
 70
     1
  9
$MAXACTVP
 70
    64
  9
$PINSBASE
 10
0.0
 20
0.0
 30
0.0
  9
$PLIMCHECK
 70
     0
  9
$PEXTMIN
 10
1.0000000000E+20
 20
1.0000000000E+20
 30
1.0000000000E+20
  9
$PEXTMAX
 10
-1.0000000000E+20
 20
-1.0000000000E+20
 30
-1.0000000000E+20
  9
$PLIMMIN
 10
0.0
 20
0.0
  9
$PLIMMAX
 10
420.0
 20
297.0
  9
$UNITMODE
 70
     0
  9
$VISRETAIN
 70
     1
  9
$PLINEGEN
 70
     0
  9
$PSLTSCALE
 70
     1
  9
$TREEDEPTH
 70
  3020
  9
$CMLSTYLE
  2
Standard
  9
$CMLJUST
 70
     0
  9
$CMLSCALE
 40
20.0
  9
$PROXYGRAPHICS
 70
     1
  9
$MEASUREMENT
 70
     1
  9
$CELWEIGHT
370
    -1
  9
$ENDCAPS
280
     0
  9
$JOINSTYLE
280
     0
  9
$LWDISPLAY
290
     1
  9
$INSUNITS
 70
     4
  9
$HYPERLINKBASE
  1

  9
$STYLESHEET
  1

  9
$XEDIT
290
     1
  9
$CEPSNTYPE
380
     0
  9
$PSTYLEMODE
290
     1
  9
$FINGERPRINTGUID
  2
{17967c38-fa61-456a-b4d8-b2378672bc2e}
  9
$VERSIONGUID
  2
{FAEB1C32-E019-11D5-929B-00C0DF256EC4}
  9
$EXTNAMES
290
     1
  9
$PSVPSCALE
 40
0.0
  9
$OLESTARTUP
290
     0
  0
ENDSEC
  0
SECTION
  2
CLASSES
  0
CLASS
  1
ACDBDICTIONARYWDFLT
  2
AcDbDictionaryWithDefault
  3
ObjectDBX Classes
 90
        0
280
     0
281
     0
  0
CLASS
  1
VISUALSTYLE
  2
AcDbVisualStyle
  3
ObjectDBX Classes
 90
     4095
280
     0
281
     0
  0
CLASS
  1
MATERIAL
  2
AcDbMaterial
  3
ObjectDBX Classes
 90
     1153
280
     0
281
     0
  0
CLASS
  1
SCALE
  2
AcDbScale
  3
ObjectDBX Classes
 90
     1153
280
     0
281
     0
  0
CLASS
  1
TABLESTYLE
  2
AcDbTableStyle
  3
ObjectDBX Classes
 90
     4095
280
     0
281
     0
  0
CLASS
  1
MLEADERSTYLE
  2
AcDbMLeaderStyle
  3
ACDB_MLEADERSTYLE_CLASS
 90
     4095
280
     0
281
     0
  0
CLASS
  1
SUN
  2
AcDbSun
  3
SCENEOE
 90
     1153
280
     0
281
     0
  0
CLASS
  1
ACDBPLACEHOLDER
  2
AcDbPlaceHolder
  3
ObjectDBX Classes
 90
        0
280
     0
281
     0
  0
CLASS
  1
LAYOUT
  2
AcDbLayout
  3
ObjectDBX Classes
 90
        0
280
     0
281
     0
  0
ENDSEC
  0
SECTION
  2
TABLES
  0
TABLE
  2
VPORT
  5
8
330
0
100
AcDbSymbolTable
 70
     1
  0
VPORT
  5
29
330
8
100
AcDbSymbolTableRecord
100
AcDbViewportTableRecord
  2
*Active
 70
     0
 10
0.0
 20
0.0
 11
1.0
 21
1.0
 12
10000.0
 22
5000.0
 13
0.0
 23
0.0
 14
10.0
 24
10.0
 15
10.0
 25
10.0
 16
0.0
 26
0.0
 36
1.0
 17
0.0
 27
0.0
 37
0.0
 40
10000.0
 41
2.0
 42
50.0
 43
0.0
 44
0.0
 50
0.0
 51
0.0
 71
     0
 72
  2000
 73
     1
 74
     3
 75
     0
 76
     0
 77
     0
 78
     0
281
     0
 65
     1
110
0.0
120
0.0
130
0.0
111
1.0
121
0.0
131
0.0
112
0.0
122
1.0
132
0.0
 79
     0
146
0.0
  0
ENDTAB
  0
TABLE
  2
LTYPE
  5
5
330
0
100
AcDbSymbolTable
 70
     6
  0
LTYPE
  5
14
330
5
100
AcDbSymbolTableRecord
100
AcDbLinetypeTableRecord
  2
ByBlock
 70
     0
  3

 72
    65
 73
     0
 40
0.0
  0
LTYPE
  5
15
330
5
100
AcDbSymbolTableRecord
100
AcDbLinetypeTableRecord
  2
ByLayer
 70
     0
  3

 72
    65
 73
     0
 40
0.0
  0
LTYPE
  5
16
330
5
100
AcDbSymbolTableRecord
100
AcDbLinetypeTableRecord
  2
Continuous
 70
     0
  3
Solid line
 72
    65
 73
     0
 40
0.0
  0
LTYPE
  5
6E
330
5
100
AcDbSymbolTableRecord
100
AcDbLinetypeTableRecord
  2
HIDDEN
 70
     0
  3
Hidden __ __ __ __ __ __ __ __ __ __ __ __ __ __
 72
    65
 73
     2
 40
1.905
 49
1.27
 74
     0
 49
-0.635
 74
     0
  0
LTYPE
  5
6F
330
5
100
AcDbSymbolTableRecord
100
AcDbLinetypeTableRecord
  2
PHANTOM
 70
     0
  3
Phantom ______  __  __  ______  __  __  ______
 72
    65
 73
     6
 40
12.7
 49
6.35
 74
     0
 49
-1.27
 74
     0
 49
1.27
 74
     0
 49
-1.27
 74
     0
 49
1.27
 74
     0
 49
-1.27
 74
     0
  0
LTYPE
  5
70
330
5
100
AcDbSymbolTableRecord
100
AcDbLinetypeTableRecord
  2
CENTER
 70
     0
  3
Center ____ _ ____ _ ____ _ ____ _ ____ _ ____
 72
    65
 73
     4
 40
10.16
 49
6.35
 74
     0
 49
-1.27
 74
     0
 49
1.27
 74
     0
 49
-1.27
 74
     0
  0
LTYPE
  5
71
330
5
100
AcDbSymbolTableRecord
100
AcDbLinetypeTableRecord
  2
CENTERX2
 70
     0
  3
Center (2x) ________  __  ________  __  _____
 72
    65
 73
     4
 40
20.32
 49
12.7
 74
     0
 49
-2.54
 74
     0
 49
2.54
 74
     0
 49
-2.54
 74
     0
  0
LTYPE
  5
72
330
5
100
AcDbSymbolTableRecord
100
AcDbLinetypeTableRecord
  2
DOT2
 70
     0
  3
Dot (.5x) ........................................
 72
    65
 73
     2
 40
0.635
 49
0.0
 74
     0
 49
-0.635
 74
     0
  0
ENDTAB
  0
TABLE
  2
LAYER
  5
2
330
0
100
AcDbSymbolTable
 70
    13
  0
LAYER
  5
10
330
2
100
AcDbSymbolTableRecord
100
AcDbLayerTableRecord
  2
0
 70
     0
 62
     7
  6
Continuous
370
    -3
390
F
  0
LAYER
  5
73
330
2
100
AcDbSymbolTableRecord
100
AcDbLayerTableRecord
  2
FORMAT
 70
     0
 62
     7
  6
Continuous
370
    -3
390
F
  0
LAYER
  5
74
330
2
100
AcDbSymbolTableRecord
100
AcDbLayerTableRecord
  2
OSA
 70
     0
 62
     7
  6
CENTER
370
    -3
390
F
  0
LAYER
  5
75
330
2
100
AcDbSymbolTableRecord
100
AcDbLayerTableRecord
  2
0_35
 70
     0
 62
     7
  6
Continuous
370
    35
390
F
  0
LAYER
  5
76
330
2
100
AcDbSymbolTableRecord
100
AcDbLayerTableRecord
  2
0_5
 70
     0
 62
     7
  6
Continuous
370
    50
390
F
  0
LAYER
  5
77
330
2
100
AcDbSymbolTableRecord
100
AcDbLayerTableRecord
  2
0_25
 70
     0
 62
     7
  6
Continuous
370
    25
390
F
  0
LAYER
  5
78
330
2
100
AcDbSymbolTableRecord
100
AcDbLayerTableRecord
  2
0_18
 70
     0
 62
     7
  6
Continuous
370
    -3
390
F
  0
LAYER
  5
79
330
2
100
AcDbSymbolTableRecord
100
AcDbLayerTableRecord
  2
SLD-0
 70
     0
 62
   179
  6
Continuous
370
    -3
390
F
  0
LAYER
  5
7A
330
2
100
AcDbSymbolTableRecord
100
AcDbLayerTableRecord
  2
KOTY
 70
     0
 62
     7
  6
Continuous
370
    -3
390
F
  0
LAYER
  5
7B
330
2
100
AcDbSymbolTableRecord
100
AcDbLayerTableRecord
  2
SILNA
 70
     0
 62
   179
  6
Continuous
370
    -3
390
F
  0
LAYER
  5
7C
330
2
100
AcDbSymbolTableRecord
100
AcDbLayerTableRecord
  2
0_18_1
 70
     0
 62
   179
  6
Continuous
370
    -3
390
F
  0
LAYER
  5
7D
330
2
100
AcDbSymbolTableRecord
100
AcDbLayerTableRecord
  2
0_35_1
 70
     0
 62
   179
  6
Continuous
370
    35
390
F
  0
LAYER
  5
7E
330
2
100
AcDbSymbolTableRecord
100
AcDbLayerTableRecord
  2
0_5_1
 70
     0
 62
   179
  6
Continuous
370
    50
390
F
  0
ENDTAB
  0
TABLE
  2
STYLE
  5
3
330
0
100
AcDbSymbolTable
 70
     1
  0
STYLE
  5
11
330
3
100
AcDbSymbolTableRecord
100
AcDbTextStyleTableRecord
  2
Standard
 70
     0
 40
0.0
 41
1.0
 50
0.0
 71
     0
 42
2.0
  3
txt
  4

  0
ENDTAB
  0
TABLE
  2
VIEW
  5
6
330
0
100
AcDbSymbolTable
 70
     0
  0
ENDTAB
  0
TABLE
  2
UCS
  5
7
330
0
100
AcDbSymbolTable
 70
     0
  0
ENDTAB
  0
TABLE
  2
APPID
  5
9
330
0
100
AcDbSymbolTable
 70
     1
  0
APPID
  5
12
330
9
100
AcDbSymbolTableRecord
100
AcDbRegAppTableRecord
  2
ACAD
 70
     0
  0
ENDTAB
  0
TABLE
  2
DIMSTYLE
  5
A
330
0
100
AcDbSymbolTable
 70
     1
100
AcDbDimStyleTable
  0
DIMSTYLE
105
27
330
A
100
AcDbSymbolTableRecord
100
AcDbDimStyleTableRecord
  2
ISO-25
 70
     0
 41
2.5
 42
0.625
 43
3.75
 44
1.25
 73
     0
 74
     0
 77
     1
 78
     8
140
2.5
141
2.5
143
0.0393700787
147
0.625
171
     3
172
     1
178
     0
271
     2
272
     2
274
     3
278
    44
283
     0
284
     8
340
11
  0
ENDTAB
  0
TABLE
  2
BLOCK_RECORD
  5
1
330
0
100
AcDbSymbolTable
 70
     1
  0
BLOCK_RECORD
  5
1F
330
1
100
AcDbSymbolTableRecord
100
AcDbBlockTableRecord
  2
*Model_Space
340
22
  0
BLOCK_RECORD
  5
1B
330
1
100
AcDbSymbolTableRecord
100
AcDbBlockTableRecord
  2
*Paper_Space
340
1E
  0
BLOCK_RECORD
  5
23
330
1
100
AcDbSymbolTableRecord
100
AcDbBlockTableRecord
  2
*Paper_Space0
340
26
  0
ENDTAB
  0
ENDSEC
  0
SECTION
  2
BLOCKS
  0
BLOCK
  5
20
330
1F
100
AcDbEntity
  8
0
100
AcDbBlockBegin
  2
*Model_Space
 70
     0
 10
0.0
 20
0.0
 30
0.0
  3
*Model_Space
  1

  0
ENDBLK
  5
21
330
1F
100
AcDbEntity
  8
0
100
AcDbBlockEnd
  0
BLOCK
  5
1C
330
1B
100
AcDbEntity
 67
     1
  8
0
100
AcDbBlockBegin
  2
*Paper_Space
 70
     0
 10
0.0
 20
0.0
 30
0.0
  3
*Paper_Space
  1

  0
ENDBLK
  5
1D
330
1B
100
AcDbEntity
 67
     1
  8
0
100
AcDbBlockEnd
  0
BLOCK
  5
24
330
23
100
AcDbEntity
  8
0
100
AcDbBlockBegin
  2
*Paper_Space0
 70
     0
 10
0.0
 20
0.0
 30
0.0
  3
*Paper_Space0
  1

  0
ENDBLK
  5
25
330
23
100
AcDbEntity
  8
0
100
AcDbBlockEnd
  0
ENDSEC
  0
SECTION
  2
ENTITIES
  0
LINE
  5
7F
330
1F
100
AcDbEntity
  8
0
  6
Continuous
 62
     7
370
    25
100
AcDbLine
 10
6145.1100456086
 20
5191.177759212
 30
0.0
 11
6146.297928911
 21
5183.677759212
 31
0.0
  0
LINE
  5
80
330
1F
100
AcDbEntity
  8
0
  6
Continuous
 62
     7
370
    25
100
AcDbLine
 10
6161.9221623062
 20
5183.677759212
 30
0.0
 11
6163.1100456086
 21
5191.177759212
 31
0.0
  0
LINE
  5
81
330
1F
100
AcDbEntity
  8
0
  6
Continuous
 62
     7
370
    25
100
AcDbLine
 10
6384.5557915002
 20
5191.177759212
 30
0.0
 11
6385.7436748026
 21
5183.677759212
 31
0.0
  0
LINE
  5
82
330
1F
100
AcDbEntity
  8
0
  6
Continuous
 62
     7
370
    25
100
AcDbLine
 10
6401.3679081977
 20
5183.677759212
 30
0.0
 11
6402.5557915002
 21
5191.177759212
 31
0.0
  0
ARC
  5
83
330
1F
100
AcDbEntity
  8
0
  6
Continuous
 62
     7
370
    25
100
AcDbCircle
 10
6434.1161071917
 20
5223.5563672509
 30
0.0
 40
7.170412412545708
100
AcDbArc
 50
0.8146817284
 51
92.5953380231
  0
ARC
  5
84
330
1F
100
AcDbEntity
  8
0
  6
Continuous
 62
     7
370
    25
100
AcDbCircle
 10
6113.4606991021
 20
5223.6066857143
 30
0.0
 40
7.100222484483818
100
AcDbArc
 50
89.3320054008
 51
179.6037510923
  0
LINE
  5
85
330
1F
100
AcDbEntity
  8
0
  6
Continuous
 62
     7
370
    25
100
AcDbLine
 10
6441.3329185544
 20
5217.6585454353
 30
0.0
 11
6441.3329185544
 21
5223.6585180548
 31
0.0
  0
LINE
  5
86
330
1F
100
AcDbEntity
  8
0
  6
Continuous
 62
     7
370
    25
100
AcDbLine
 10
6106.3329185544
 20
5223.6585180548
 30
0.0
 11
6106.3329185544
 21
5217.6585454353
 31
0.0
  0
LINE
  5
87
330
1F
100
AcDbEntity
  8
0
  6
Continuous
 62
     7
370
    25
100
AcDbLine
 10
6389.8951725908
 20
5217.1517563126
 30
0.0
 11
6392.4899035878
 21
5210.0228283309
 31
0.0
  0
LINE
  5
88
330
1F
100
AcDbEntity
  8
0
  6
Continuous
 62
     7
370
    25
100
AcDbLine
 10
6400.175933521
 20
5210.0228283309
 30
0.0
 11
6402.7918636912
 21
5217.2100002613
 31
0.0
  0
LINE
  5
89
330
1F
100
AcDbEntity
  8
0
  6
Continuous
 62
     7
370
    25
100
AcDbLine
 10
6144.8739734176
 20
5217.2100002613
 30
0.0
 11
6147.4899035878
 21
5210.0228283309
 31
0.0
  0
LINE
  5
8A
330
1F
100
AcDbEntity
  8
0
  6
Continuous
 62
     7
370
    25
100
AcDbLine
 10
6155.175933521
 20
5210.0228283309
 30
0.0
 11
6157.770664518
 21
5217.1517563126
 31
0.0
  0
LINE
  5
8B
330
1F
100
AcDbEntity
  8
0
  6
Continuous
 62
     7
370
    25
100
AcDbLine
 10
6449.3329185544
 20
5191.177759212
 30
0.0
 11
6098.3329185544
 21
5191.177759212
 31
0.0
  0
ARC
  5
8C
330
1F
100
AcDbEntity
  8
0
  6
Continuous
 62
     7
370
    25
100
AcDbCircle
 10
6098.3329185544
 20
5193.177759212
 30
0.0
 40
2.0
100
AcDbArc
 50
180.0
 51
270.0
  0
LINE
  5
8D
330
1F
100
AcDbEntity
  8
0
  6
Continuous
 62
     7
370
    25
100
AcDbLine
 10
6096.3329185544
 20
5193.177759212
 30
0.0
 11
6451.3329185544
 21
5193.177759212
 31
0.0
  0
ARC
  5
8E
330
1F
100
AcDbEntity
  8
0
  6
Continuous
 62
     7
370
    25
100
AcDbCircle
 10
6449.3329185544
 20
5193.177759212
 30
0.0
 40
2.000000000001819
100
AcDbArc
 50
270.0
 51
360.0
  0
LINE
  5
8F
330
1F
100
AcDbEntity
  8
0
  6
Continuous
 62
     7
370
    25
100
AcDbLine
 10
6451.3329185544
 20
5199.177759212
 30
0.0
 11
6096.3329185544
 21
5199.177759212
 31
0.0
  0
LINE
  5
90
330
1F
100
AcDbEntity
  8
0
  6
Continuous
 62
     7
370
    25
100
AcDbLine
 10
6451.3329185544
 20
5199.177759212
 30
0.0
 11
6451.3329185544
 21
5193.177759212
 31
0.0
  0
LINE
  5
91
330
1F
100
AcDbEntity
  8
0
  6
Continuous
 62
     7
370
    25
100
AcDbLine
 10
6096.3329185544
 20
5199.177759212
 30
0.0
 11
6096.3329185544
 21
5193.177759212
 31
0.0
  0
LINE
  5
92
330
1F
100
AcDbEntity
  8
0
  6
Continuous
 62
     7
370
    25
100
AcDbLine
 10
6106.3329185544
 20
5209.177759212
 30
0.0
 11
6441.3329185544
 21
5209.177759212
 31
0.0
  0
ARC
  5
93
330
1F
100
AcDbEntity
  8
0
  6
Continuous
 62
     7
370
    25
100
AcDbCircle
 10
6441.3329185544
 20
5199.177759212
 30
0.0
 40
9.999999999993634
100
AcDbArc
 50
360.0
 51
90.0000000001
  0
ARC
  5
94
330
1F
100
AcDbEntity
  8
0
  6
Continuous
 62
     7
370
    25
100
AcDbCircle
 10
6106.3329185544
 20
5199.177759212
 30
0.0
 40
9.999999999994543
100
AcDbArc
 50
90.0
 51
180.0
  0
LINE
  5
95
330
1F
100
AcDbEntity
  8
0
  6
Continuous
 62
     7
370
    25
100
AcDbLine
 10
6161.9221623062
 20
5183.677759212
 30
0.0
 11
6146.297928911
 21
5183.677759212
 31
0.0
  0
LINE
  5
96
330
1F
100
AcDbEntity
  8
0
  6
Continuous
 62
     7
370
    25
100
AcDbLine
 10
6393.5557915002
 20
5183.677759212
 30
0.0
 11
6385.7436748026
 21
5183.677759212
 31
0.0
  0
LINE
  5
97
330
1F
100
AcDbEntity
  8
0
  6
Continuous
 62
     7
370
    25
100
AcDbLine
 10
6401.3679081977
 20
5183.677759212
 30
0.0
 11
6393.5557915002
 21
5183.677759212
 31
0.0
  0
LINE
  5
98
330
1F
100
AcDbEntity
  8
0
  6
Continuous
 62
     7
370
    25
100
AcDbLine
 10
6339.3329185544
 20
5189.177759212
 30
0.0
 11
6339.3329185544
 21
5191.177759212
 31
0.0
  0
LINE
  5
99
330
1F
100
AcDbEntity
  8
0
  6
Continuous
 62
     7
370
    25
100
AcDbLine
 10
6339.3329185544
 20
5189.177759212
 30
0.0
 11
6330.8329185544
 21
5189.177759212
 31
0.0
  0
LINE
  5
9A
330
1F
100
AcDbEntity
  8
0
  6
Continuous
 62
     7
370
    25
100
AcDbLine
 10
6330.8329185544
 20
5189.177759212
 30
0.0
 11
6330.8329185544
 21
5191.177759212
 31
0.0
  0
LINE
  5
9B
330
1F
100
AcDbEntity
  8
0
  6
Continuous
 62
     7
370
    25
100
AcDbLine
 10
6341.3329185544
 20
5189.177759212
 30
0.0
 11
6341.3329185544
 21
5191.177759212
 31
0.0
  0
LINE
  5
9C
330
1F
100
AcDbEntity
  8
0
  6
Continuous
 62
     7
370
    25
100
AcDbLine
 10
6341.3329185544
 20
5189.177759212
 30
0.0
 11
6339.3329185544
 21
5189.177759212
 31
0.0
  0
LINE
  5
9D
330
1F
100
AcDbEntity
  8
0
  6
Continuous
 62
     7
370
    25
100
AcDbLine
 10
6328.8329185544
 20
5189.177759212
 30
0.0
 11
6328.8329185544
 21
5191.177759212
 31
0.0
  0
LINE
  5
9E
330
1F
100
AcDbEntity
  8
0
  6
Continuous
 62
     7
370
    25
100
AcDbLine
 10
6330.8329185544
 20
5189.177759212
 30
0.0
 11
6328.8329185544
 21
5189.177759212
 31
0.0
  0
LINE
  5
9F
330
1F
100
AcDbEntity
  8
0
  6
Continuous
 62
     7
370
    25
100
AcDbLine
 10
6208.3329185544
 20
5189.177759212
 30
0.0
 11
6208.3329185544
 21
5191.177759212
 31
0.0
  0
LINE
  5
A0
330
1F
100
AcDbEntity
  8
0
  6
Continuous
 62
     7
370
    25
100
AcDbLine
 10
6208.3329185544
 20
5189.177759212
 30
0.0
 11
6206.3329185544
 21
5189.177759212
 31
0.0
  0
LINE
  5
A1
330
1F
100
AcDbEntity
  8
0
  6
Continuous
 62
     7
370
    25
100
AcDbLine
 10
6206.3329185544
 20
5189.177759212
 30
0.0
 11
6206.3329185544
 21
5191.177759212
 31
0.0
  0
LINE
  5
A2
330
1F
100
AcDbEntity
  8
0
  6
Continuous
 62
     7
370
    25
100
AcDbLine
 10
6216.8329185544
 20
5189.177759212
 30
0.0
 11
6216.8329185544
 21
5191.177759212
 31
0.0
  0
LINE
  5
A3
330
1F
100
AcDbEntity
  8
0
  6
Continuous
 62
     7
370
    25
100
AcDbLine
 10
6216.8329185544
 20
5189.177759212
 30
0.0
 11
6208.3329185544
 21
5189.177759212
 31
0.0
  0
LINE
  5
A4
330
1F
100
AcDbEntity
  8
0
  6
Continuous
 62
     7
370
    25
100
AcDbLine
 10
6218.8329185544
 20
5189.177759212
 30
0.0
 11
6218.8329185544
 21
5191.177759212
 31
0.0
  0
LINE
  5
A5
330
1F
100
AcDbEntity
  8
0
  6
Continuous
 62
     7
370
    25
100
AcDbLine
 10
6218.8329185544
 20
5189.177759212
 30
0.0
 11
6216.8329185544
 21
5189.177759212
 31
0.0
  0
LWPOLYLINE
  5
A6
330
1F
100
AcDbEntity
  8
0
  6
Continuous
 62
     7
370
    25
100
AcDbPolyline
 90
       11
 70
   128
 43
0.0
 10
6168.6899620898
 20
5231.1730998478
 10
6159.7261232193
 20
5231.1374156465
 10
6151.5824415758
 20
5231.0997011868
 10
6144.1877840486
 20
5231.0598663707
 10
6137.6147822556
 20
5231.0185299554
 10
6131.2666073942
 20
5230.971168154
 10
6125.8974610929
 20
5230.9224947797
 10
6121.4776507277
 20
5230.8725496108
 10
6118.0887652195
 20
5230.822936329
 10
6115.4749376848
 20
5230.7693019119
 10
6113.8895720313
 20
5230.7151163767
  0
LWPOLYLINE
  5
A7
330
1F
100
AcDbEntity
  8
0
  6
Continuous
 62
     7
370
    25
100
AcDbPolyline
 90
       50
 70
   128
 43
0.0
 10
6113.8604304348
 20
5230.6062330748
 10
6114.9580959406
 20
5230.5618835693
 10
6117.1127354621
 20
5230.5116549001
 10
6120.3725934525
 20
5230.4591258447
 10
6124.6808320999
 20
5230.4070952987
 10
6128.601078683
 20
5230.3687218417
 10
6133.1409534985
 20
5230.3308781701
 10
6138.3333377743
 20
5230.2935923975
 10
6144.1015793959
 20
5230.25760794
 10
6150.8461991512
 20
5230.2209743995
 10
6158.3521462818
 20
5230.1855327188
 10
6163.9886343761
 20
5230.1619064406
 10
6170.0065461518
 20
5230.1390708021
 10
6176.3834143421
 20
5230.1172276201
 10
6183.1539197284
 20
5230.0963803409
 10
6190.6008262214
 20
5230.0759381224
 10
6198.4826288625
 20
5230.0568580459
 10
6206.679530517
 20
5230.0395499278
 10
6215.2931347091
 20
5230.0239212359
 10
6224.4085733977
 20
5230.0100349633
 10
6233.9141646827
 20
5229.9982813382
 10
6243.4437439453
 20
5229.9891506315
 10
6253.2603252783
 20
5229.9824113337
 10
6263.4623844599
 20
5229.9781920657
 10
6273.8329185544
 20
5229.9767604263
 10
6282.9953136953
 20
5229.9778776808
 10
6292.1577088363
 20
5229.9812401825
 10
6301.3804289528
 20
5229.9869254983
 10
6310.4824991181
 20
5229.9948557675
 10
6320.7193248552
 20
5230.0066308729
 10
6330.6597974446
 20
5230.0211091713
 10
6340.3759568121
 20
5230.038358528
 10
6349.6737959772
 20
5230.0579736445
 10
6356.9105188645
 20
5230.0755397192
 10
6363.8255818899
 20
5230.0943914375
 10
6370.3692641879
 20
5230.1142811051
 10
6376.5820047019
 20
5230.1352188712
 10
6382.7073274082
 20
5230.1580680689
 10
6388.4707822157
 20
5230.1818491836
 10
6395.4686986242
 20
5230.2142194046
 10
6401.8613688896
 20
5230.2478632126
 10
6407.673614886
 20
5230.2827283764
 10
6412.7963713896
 20
5230.317855471
 10
6417.5850964542
 20
5230.3557339571
 10
6421.7584261987
 20
5230.3943771479
 10
6425.9967605819
 20
5230.441987263
 10
6429.3604556915
 20
5230.4903894835
 10
6431.8638312757
 20
5230.539570841
 10
6433.4772355708
 20
5230.5883063471
 10
6433.8818694127
 20
5230.6145620735
  0
LWPOLYLINE
  5
A8
330
1F
100
AcDbEntity
  8
0
  6
Continuous
 62
     7
370
    25
100
AcDbPolyline
 90
       13
 70
   128
 43
0.0
 10
6433.4421253082
 20
5230.7266292774
 10
6433.1652775789
 20
5230.7404269786
 10
6431.3580727093
 20
5230.788910871
 10
6428.6941520839
 20
5230.8373042346
 10
6425.2208022952
 20
5230.8845587366
 10
6420.6394719891
 20
5230.9336001167
 10
6415.0643568878
 20
5230.9818885557
 10
6410.501521771
 20
5231.0154427812
 10
6405.4091809838
 20
5231.048382248
 10
6399.7569299122
 20
5231.0806716563
 10
6393.6263811734
 20
5231.1116866035
 10
6386.6227442792
 20
5231.1430092335
 10
6378.975875019
 20
5231.1730998478
  0
ELLIPSE
  5
A9
330
1F
100
AcDbEntity
  8
0
  6
Continuous
 62
     7
370
    25
100
AcDbEllipse
 10
6273.8329185544
 20
5217.6585454353
 30
0.0
 11
167.5
 21
0.0
 31
0.0
210
0.0
220
0.0
230
1.0
 40
0.0041962573
 41
3.141594273200003
 42
6.28318400801398
  0
LINE
  5
AA
330
1F
100
AcDbEntity
  8
0
  6
Continuous
 62
     7
370
    25
100
AcDbLine
 10
6378.975875019
 20
5231.1730998478
 30
0.0
 11
6168.6899620898
 21
5231.1730998478
 31
0.0
  0
ARC
  5
AB
330
1F
100
AcDbEntity
  8
0
  6
Continuous
 62
     7
370
    25
100
AcDbCircle
 10
6396.3329185544
 20
5671.9665590985
 30
0.0
 40
461.9597159487921
100
AcDbArc
 50
269.5233543741
 51
270.4766456259
  0
ARC
  5
AC
330
1F
100
AcDbEntity
  8
0
  6
Continuous
 62
     7
370
    25
100
AcDbCircle
 10
6151.3329185544
 20
5671.9665590983
 30
0.0
 40
461.9597159486339
100
AcDbArc
 50
269.5233543741
 51
270.4766456259
  0
LINE
  5
AD
330
1F
100
AcDbEntity
  8
0
  6
Continuous
 62
     7
370
    25
100
AcDbLine
 10
6324.108310486
 20
5216.0885786429
 30
0.0
 11
6315.808310486
 21
5216.0885786429
 31
0.0
  0
LINE
  5
AE
330
1F
100
AcDbEntity
  8
0
  6
Continuous
 62
     7
370
    25
100
AcDbLine
 10
6326.108310486
 20
5216.0946207612
 30
0.0
 11
6326.108310486
 21
5216.9907794983
 31
0.0
  0
ARC
  5
AF
330
1F
100
AcDbEntity
  8
0
  6
Continuous
 62
     7
370
    25
100
AcDbCircle
 10
6324.6083059226
 20
5381.5979798871
 30
0.0
 40
165.510156472829
100
AcDbArc
 50
269.8269129069
 51
270.5192739173
  0
ARC
  5
B0
330
1F
100
AcDbEntity
  8
0
  6
Continuous
 62
     7
370
    25
100
AcDbCircle
 10
6315.3083150494
 20
5381.5979798868
 30
0.0
 40
165.5101564725188
100
AcDbArc
 50
269.4807260827
 51
270.1730870931
  0
LINE
  5
B1
330
1F
100
AcDbEntity
  8
0
  6
Continuous
 62
     7
370
    25
100
AcDbLine
 10
6313.808310486
 20
5216.0946207612
 30
0.0
 11
6313.808310486
 21
5216.9759829644
 31
0.0
  0
LINE
  5
B2
330
1F
100
AcDbEntity
  8
0
  6
Continuous
 62
     7
370
    25
100
AcDbLine
 10
6233.8575266227
 20
5216.0946207612
 30
0.0
 11
6233.8575266227
 21
5216.9759829644
 31
0.0
  0
ARC
  5
B3
330
1F
100
AcDbEntity
  8
0
  6
Continuous
 62
     7
370
    25
100
AcDbCircle
 10
6232.3575220593
 20
5381.5979798869
 30
0.0
 40
165.5101564726043
100
AcDbArc
 50
269.8269129069
 51
270.5192739173
  0
LINE
  5
B4
330
1F
100
AcDbEntity
  8
0
  6
Continuous
 62
     7
370
    25
100
AcDbLine
 10
6231.8575266227
 20
5216.0885786429
 30
0.0
 11
6223.5575266227
 21
5216.0885786429
 31
0.0
  0
ARC
  5
B5
330
1F
100
AcDbEntity
  8
0
  6
Continuous
 62
     7
370
    25
100
AcDbCircle
 10
6223.0575311861
 20
5381.5979798871
 30
0.0
 40
165.5101564727553
100
AcDbArc
 50
269.4807260827
 51
270.1730870931
  0
LINE
  5
B6
330
1F
100
AcDbEntity
  8
0
  6
Continuous
 62
     7
370
    25
100
AcDbLine
 10
6221.5575266227
 20
5216.0946207612
 30
0.0
 11
6221.5575266227
 21
5216.9907794983
 31
0.0
  0
LINE
  5
B7
330
1F
100
AcDbEntity
  8
0
  6
Continuous
 62
     7
370
    25
100
AcDbLine
 10
6326.108310486
 20
5214.1882827215
 30
0.0
 11
6313.808310486
 21
5214.1882827215
 31
0.0
  0
LINE
  5
B8
330
1F
100
AcDbEntity
  8
0
  6
Continuous
 62
     7
370
    25
100
AcDbLine
 10
6313.808310486
 20
5214.1882827215
 30
0.0
 11
6313.808310486
 21
5216.0946207612
 31
0.0
  0
LINE
  5
B9
330
1F
100
AcDbEntity
  8
0
  6
Continuous
 62
     7
370
    25
100
AcDbLine
 10
6326.108310486
 20
5216.0946207612
 30
0.0
 11
6326.108310486
 21
5214.1882827215
 31
0.0
  0
LINE
  5
BA
330
1F
100
AcDbEntity
  8
0
  6
Continuous
 62
     7
370
    25
100
AcDbLine
 10
6233.8575266227
 20
5214.1882827215
 30
0.0
 11
6221.5575266227
 21
5214.1882827215
 31
0.0
  0
LINE
  5
BB
330
1F
100
AcDbEntity
  8
0
  6
Continuous
 62
     7
370
    25
100
AcDbLine
 10
6221.5575266227
 20
5214.1882827215
 30
0.0
 11
6221.5575266227
 21
5216.0946207612
 31
0.0
  0
LINE
  5
BC
330
1F
100
AcDbEntity
  8
0
  6
Continuous
 62
     7
370
    25
100
AcDbLine
 10
6233.8575266227
 20
5216.0946207612
 30
0.0
 11
6233.8575266227
 21
5214.1882827215
 31
0.0
  0
LINE
  5
BD
330
1F
100
AcDbEntity
  8
0
  6
Continuous
 62
     7
370
    25
100
AcDbLine
 10
6313.808310486
 20
5209.177759212
 30
0.0
 11
6313.808310486
 21
5214.1882827215
 31
0.0
  0
LINE
  5
BE
330
1F
100
AcDbEntity
  8
0
  6
Continuous
 62
     7
370
    25
100
AcDbLine
 10
6326.108310486
 20
5209.177759212
 30
0.0
 11
6326.108310486
 21
5214.1882827215
 31
0.0
  0
LINE
  5
BF
330
1F
100
AcDbEntity
  8
0
  6
Continuous
 62
     7
370
    25
100
AcDbLine
 10
6221.5575266227
 20
5209.177759212
 30
0.0
 11
6221.5575266227
 21
5214.1882827215
 31
0.0
  0
LINE
  5
C0
330
1F
100
AcDbEntity
  8
0
  6
Continuous
 62
     7
370
    25
100
AcDbLine
 10
6233.8575266227
 20
5209.177759212
 30
0.0
 11
6233.8575266227
 21
5214.1882827215
 31
0.0
  0
LWPOLYLINE
  5
C1
330
1F
100
AcDbEntity
  8
0
  6
Continuous
 62
     8
370
    25
100
AcDbPolyline
 90
        4
 70
   128
 43
0.0
 10
6113.8895720313
 20
5230.7151163767
 10
6113.3385795127
 20
5230.6642018238
 10
6113.6898503744
 20
5230.6131251027
 10
6113.8604304348
 20
5230.6062330748
  0
LWPOLYLINE
  5
C2
330
1F
100
AcDbEntity
  8
0
  6
Continuous
 62
     8
370
    25
100
AcDbPolyline
 90
        4
 70
   128
 43
0.0
 10
6433.8818694127
 20
5230.6145620735
 10
6434.2735448595
 20
5230.6399769605
 10
6434.1398611794
 20
5230.6918551034
 10
6433.4421253082
 20
5230.7266292774
  0
LWPOLYLINE
  5
C3
330
1F
100
AcDbEntity
  8
0
  6
Continuous
 62
     8
370
    25
100
AcDbPolyline
 90
       59
 70
   128
 43
0.0
 10
6441.3112896156
 20
5223.6584832801
 10
6441.3305044062
 20
5223.6547494941
 10
6441.0387292201
 20
5223.6168783926
 10
6440.2531595822
 20
5223.5788387394
 10
6438.9719755257
 20
5223.5409223432
 10
6437.151310443
 20
5223.5024448814
 10
6434.8064532965
 20
5223.4642276659
 10
6431.9082985147
 20
5223.426073352
 10
6428.4636260958
 20
5223.3883366168
 10
6424.3725506684
 20
5223.3503273878
 10
6419.6874516554
 20
5223.3129265131
 10
6414.4009423229
 20
5223.2762926644
 10
6409.9353142948
 20
5223.2488209722
 10
6405.1008087571
 20
5223.2219259454
 10
6399.851444501
 20
5223.1954905299
 10
6394.2147644021
 20
5223.1697943729
 10
6388.5049254907
 20
5223.1461867013
 10
6382.4369466123
 20
5223.1234102588
 10
6375.9693569692
 20
5223.1014358888
 10
6369.2100884975
 20
5223.0807215298
 10
6361.7467221971
 20
5223.0602406474
 10
6353.8946734967
 20
5223.0411351455
 10
6344.4147387413
 20
5223.0210971245
 10
6334.4584585746
 20
5223.0032997347
 10
6323.7759407626
 20
5222.9876200616
 10
6312.6833373108
 20
5222.9748127083
 10
6303.3129210706
 20
5222.9666191315
 10
6293.7614883187
 20
5222.9606374173
 10
6283.8311232502
 20
5222.9569013637
 10
6273.8329185544
 20
5222.9556449561
 10
6263.2161849114
 20
5222.9570622256
 10
6252.6805439149
 20
5222.9612719633
 10
6241.9822300294
 20
5222.9684730839
 10
6231.5281692754
 20
5222.9784322737
 10
6221.780071727
 20
5222.9904484181
 10
6212.364159356
 20
5223.0046845863
 10
6203.1174620872
 20
5223.0213574206
 10
6194.2840947773
 20
5223.039968738
 10
6186.4658247476
 20
5223.0588320899
 10
6179.029908594
 20
5223.0790600559
 10
6171.9235080555
 20
5223.1007042497
 10
6165.3277098163
 20
5223.1230573765
 10
6158.742553961
 20
5223.1478413052
 10
6152.5801860899
 20
5223.1736001716
 10
6146.9865704021
 20
5223.1994880536
 10
6141.7815309589
 20
5223.2261063929
 10
6136.9234541536
 20
5223.253583693
 10
6132.4463613145
 20
5223.2816462212
 10
6128.2614928609
 20
5223.3108306526
 10
6124.4596928081
 20
5223.3404902102
 10
6121.0151433341
 20
5223.3707460747
 10
6117.9453830801
 20
5223.4013683982
 10
6114.6967916211
 20
5223.4391881949
 10
6111.9897178443
 20
5223.4773957875
 10
6109.802769613
 20
5223.5161939015
 10
6108.1512226449
 20
5223.5552333684
 10
6107.0119459367
 20
5223.5952936183
 10
6106.4230567064
 20
5223.6354622438
 10
6106.4010853263
 20
5223.6584963337
  0
LINE
  5
C4
330
1F
100
AcDbEntity
  8
0
  6
Continuous
 62
     8
370
    25
100
AcDbLine
 10
6324.108310486
 20
5216.0885786429
 30
0.0
 11
6324.108310486
 21
5216.9880807509
 31
0.0
  0
LINE
  5
C5
330
1F
100
AcDbEntity
  8
0
  6
Continuous
 62
     8
370
    25
100
AcDbLine
 10
6315.808310486
 20
5216.0885786429
 30
0.0
 11
6315.808310486
 21
5216.9781003945
 31
0.0
  0
LINE
  5
C6
330
1F
100
AcDbEntity
  8
0
  6
Continuous
 62
     8
370
    25
100
AcDbLine
 10
6231.8575266227
 20
5216.0885786429
 30
0.0
 11
6231.8575266227
 21
5216.9781003945
 31
0.0
  0
LINE
  5
C7
330
1F
100
AcDbEntity
  8
0
  6
Continuous
 62
     8
370
    25
100
AcDbLine
 10
6223.5575266227
 20
5216.0885786429
 30
0.0
 11
6223.5575266227
 21
5216.9880807509
 31
0.0
  0
ARC
  5
C8
330
1F
100
AcDbEntity
  8
0
  6
Continuous
 62
     7
370
    25
100
AcDbCircle
 10
7123.0076789599
 20
5199.177759212
 30
0.0
 40
10.00000000000091
100
AcDbArc
 50
0.0
 51
90.0
  0
LINE
  5
C9
330
1F
100
AcDbEntity
  8
0
  6
Continuous
 62
     7
370
    25
100
AcDbLine
 10
7133.0076789599
 20
5193.177759212
 30
0.0
 11
7133.0076789599
 21
5199.177759212
 31
0.0
  0
ARC
  5
CA
330
1F
100
AcDbEntity
  8
0
  6
Continuous
 62
     7
370
    25
100
AcDbCircle
 10
7131.0076789599
 20
5193.177759212
 30
0.0
 40
2.000000000000909
100
AcDbArc
 50
270.0
 51
0.0
  0
LINE
  5
CB
330
1F
100
AcDbEntity
  8
0
  6
Continuous
 62
     7
370
    25
100
AcDbLine
 10
7032.3774019753
 20
5191.177759212
 30
0.0
 11
7033.5652852777
 21
5183.677759212
 31
0.0
  0
LINE
  5
CC
330
1F
100
AcDbEntity
  8
0
  6
Continuous
 62
     7
370
    25
100
AcDbLine
 10
7049.1895186728
 20
5183.677759212
 30
0.0
 11
7050.3774019753
 21
5191.177759212
 31
0.0
  0
ARC
  5
CD
330
1F
100
AcDbEntity
  8
0
  6
Continuous
 62
     7
370
    25
100
AcDbCircle
 10
7118.9981855014
 20
5222.9767923702
 30
0.0
 40
7.0000000000011
100
AcDbArc
 50
359.8081799402
 51
89.8269108426
  0
LINE
  5
CE
330
1F
100
AcDbEntity
  8
0
  6
Continuous
 62
     7
370
    25
100
AcDbLine
 10
7125.9800272227
 20
5216.9556723366
 30
0.0
 11
7125.9981535776
 21
5222.9556449561
 31
0.0
  0
LINE
  5
CF
330
1F
100
AcDbEntity
  8
0
  6
Continuous
 62
     7
370
    25
100
AcDbLine
 10
6997.9552026788
 20
5217.3424446686
 30
0.0
 11
7000.5901195322
 21
5210.0344510796
 31
0.0
  0
LINE
  5
D0
330
1F
100
AcDbEntity
  8
0
  6
Continuous
 62
     7
370
    25
100
AcDbLine
 10
7008.2761190374
 20
5210.0112311145
 30
0.0
 11
7010.9551433544
 21
5217.3031708997
 31
0.0
  0
CIRCLE
  5
D1
330
1F
100
AcDbEntity
  8
0
  6
Continuous
 62
     7
370
    25
100
AcDbCircle
 10
6721.4365572347
 20
5203.177759212
 30
0.0
 40
4.5
  0
LINE
  5
D2
330
1F
100
AcDbEntity
  8
0
  6
Continuous
 62
     7
370
    25
100
AcDbLine
 10
6882.6969220777
 20
5199.177759212
 30
0.0
 11
6866.009879009
 21
5199.177759212
 31
0.0
  0
LWPOLYLINE
  5
D3
330
1F
100
AcDbEntity
  8
0
  6
Continuous
 62
     7
370
    25
100
AcDbPolyline
 90
        9
 70
   128
 43
0.0
 10
6866.009879009
 20
5199.177759212
 10
6866.0434141305
 20
5201.1286635435
 10
6866.1427307575
 20
5203.0045956293
 10
6866.3040122034
 20
5204.7334643686
 10
6866.5210605055
 20
5206.2488302287
 10
6866.7855346097
 20
5207.4924584825
 10
6867.0872709129
 20
5208.4165571388
 10
6867.4146738446
 20
5208.9856135634
 10
6867.7551614917
 20
5209.177759212
  0
LINE
  5
D4
330
1F
100
AcDbEntity
  8
0
  6
Continuous
 62
     7
370
    25
100
AcDbLine
 10
6867.7551614917
 20
5209.177759212
 30
0.0
 11
6883.1075627255
 21
5209.177759212
 31
0.0
  0
ARC
  5
D5
330
1F
100
AcDbEntity
  8
0
  6
Continuous
 62
     7
370
    25
100
AcDbCircle
 10
6938.9930882157
 20
5201.874441086
 30
0.0
 40
56.36071694865353
100
AcDbArc
 50
172.5545783377
 51
182.7424687348
  0
LINE
  5
D6
330
1F
100
AcDbEntity
  8
0
  6
Continuous
 62
     7
370
    25
100
AcDbLine
 10
6882.778107619
 20
5191.177759212
 30
0.0
 11
6866.3615505201
 21
5191.177759212
 31
0.0
  0
ARC
  5
D7
330
1F
100
AcDbEntity
  8
0
  6
Continuous
 62
     7
370
    25
100
AcDbCircle
 10
6869.1172015061
 20
5192.6932193981
 30
0.0
 40
3.144873913512161
100
AcDbArc
 50
171.1369690927
 51
208.808433428
  0
LINE
  5
D8
330
1F
100
AcDbEntity
  8
0
  6
Continuous
 62
     7
370
    25
100
AcDbLine
 10
6866.009879009
 20
5193.177759212
 30
0.0
 11
6882.6969220777
 21
5193.177759212
 31
0.0
  0
ARC
  5
D9
330
1F
100
AcDbEntity
  8
0
  6
Continuous
 62
     7
370
    25
100
AcDbCircle
 10
6894.1336958568
 20
5192.6403617737
 30
0.0
 40
11.44939258128676
100
AcDbArc
 50
177.3097330943
 51
187.3393033787
  0
LINE
  5
DA
330
1F
100
AcDbEntity
  8
0
  6
Continuous
 62
     7
370
    25
100
AcDbLine
 10
6882.6969220777
 20
5199.177759212
 30
0.0
 11
6882.6969220777
 21
5193.177759212
 31
0.0
  0
LINE
  5
DB
330
1F
100
AcDbEntity
  8
0
  6
Continuous
 62
     7
370
    25
100
AcDbLine
 10
6866.009879009
 20
5199.177759212
 30
0.0
 11
6866.009879009
 21
5193.177759212
 31
0.0
  0
LINE
  5
DC
330
1F
100
AcDbEntity
  8
0
  6
Continuous
 62
     7
370
    25
100
AcDbLine
 10
6968.3399705858
 20
5199.177759212
 30
0.0
 11
6882.6969220777
 21
5199.177759212
 31
0.0
  0
LINE
  5
DD
330
1F
100
AcDbEntity
  8
0
  6
Continuous
 62
     7
370
    25
100
AcDbLine
 10
6968.3399705858
 20
5199.177759212
 30
0.0
 11
6968.3399705858
 21
5193.177759212
 31
0.0
  0
LINE
  5
DE
330
1F
100
AcDbEntity
  8
0
  6
Continuous
 62
     7
370
    25
100
AcDbLine
 10
6882.6969220777
 20
5193.177759212
 30
0.0
 11
6968.3399705858
 21
5193.177759212
 31
0.0
  0
LINE
  5
DF
330
1F
100
AcDbEntity
  8
0
  6
Continuous
 62
     7
370
    25
100
AcDbLine
 10
6883.1075627255
 20
5209.177759212
 30
0.0
 11
6967.9595128069
 21
5209.177759212
 31
0.0
  0
LWPOLYLINE
  5
E0
330
1F
100
AcDbEntity
  8
0
  6
Continuous
 62
     7
370
    25
100
AcDbPolyline
 90
        7
 70
   128
 43
0.0
 10
6967.9595128069
 20
5209.177759212
 10
6967.9622911626
 20
5209.1775001719
 10
6968.0442429318
 20
5208.9323066206
 10
6968.1627604037
 20
5207.6538776248
 10
6968.2576361642
 20
5205.4213609394
 10
6968.3188360878
 20
5202.4860580688
 10
6968.3399705858
 20
5199.177759212
  0
LINE
  5
E1
330
1F
100
AcDbEntity
  8
0
  6
Continuous
 62
     7
370
    25
100
AcDbLine
 10
6968.2647525434
 20
5191.177759212
 30
0.0
 11
6882.778107619
 21
5191.177759212
 31
0.0
  0
ARC
  5
E2
330
1F
100
AcDbEntity
  8
0
  6
Continuous
 62
     7
370
    25
100
AcDbCircle
 10
6958.0420393699
 20
5192.563639887
 30
0.0
 40
10.31622653268469
100
AcDbArc
 50
352.2795496822
 51
3.4128041458
  0
LINE
  5
E3
330
1F
100
AcDbEntity
  8
0
  6
Continuous
 62
     7
370
    25
100
AcDbLine
 10
6967.9595128069
 20
5209.177759212
 30
0.0
 11
7123.0076789599
 21
5209.177759212
 31
0.0
  0
LINE
  5
E4
330
1F
100
AcDbEntity
  8
0
  6
Continuous
 62
     7
370
    25
100
AcDbLine
 10
7131.0076789599
 20
5191.177759212
 30
0.0
 11
6968.2647525434
 21
5191.177759212
 31
0.0
  0
LINE
  5
E5
330
1F
100
AcDbEntity
  8
0
  6
Continuous
 62
     7
370
    25
100
AcDbLine
 10
6866.009879009
 20
5199.177759212
 30
0.0
 11
6726.9365572347
 21
5199.177759212
 31
0.0
  0
ARC
  5
E6
330
1F
100
AcDbEntity
  8
0
  6
Continuous
 62
     7
370
    25
100
AcDbCircle
 10
6736.9365572347
 20
5199.177759212
 30
0.0
 40
9.99999999999909
100
AcDbArc
 50
90.0
 51
180.0
  0
LINE
  5
E7
330
1F
100
AcDbEntity
  8
0
  6
Continuous
 62
     7
370
    25
100
AcDbLine
 10
6736.9365572347
 20
5209.177759212
 30
0.0
 11
6867.7551614917
 21
5209.177759212
 31
0.0
  0
ARC
  5
E8
330
1F
100
AcDbEntity
  8
0
  6
Continuous
 62
     7
370
    25
100
AcDbCircle
 10
6728.9365572348
 20
5193.1777592121
 30
0.0
 40
2.000000000060936
100
AcDbArc
 50
180.0000000017
 51
269.9999999982
  0
LINE
  5
E9
330
1F
100
AcDbEntity
  8
0
  6
Continuous
 62
     7
370
    25
100
AcDbLine
 10
6726.9365572347
 20
5193.177759212
 30
0.0
 11
6866.009879009
 21
5193.177759212
 31
0.0
  0
LINE
  5
EA
330
1F
100
AcDbEntity
  8
0
  6
Continuous
 62
     7
370
    25
100
AcDbLine
 10
6866.3615505201
 20
5191.177759212
 30
0.0
 11
6728.9365572347
 21
5191.177759212
 31
0.0
  0
LINE
  5
EB
330
1F
100
AcDbEntity
  8
0
  6
Continuous
 62
     7
370
    25
100
AcDbLine
 10
6726.9365572347
 20
5199.177759212
 30
0.0
 11
6726.9365572347
 21
5193.177759212
 31
0.0
  0
LINE
  5
EC
330
1F
100
AcDbEntity
  8
0
  6
Continuous
 62
     7
370
    25
100
AcDbLine
 10
7049.1895186728
 20
5183.677759212
 30
0.0
 11
7033.5652852777
 21
5183.677759212
 31
0.0
  0
ARC
  5
ED
330
1F
100
AcDbEntity
  8
0
  6
Continuous
 62
     7
370
    25
100
AcDbCircle
 10
6728.4365572347
 20
5192.677759212
 30
0.0
 40
1.5
100
AcDbArc
 50
180.0
 51
270.0
  0
LINE
  5
EE
330
1F
100
AcDbEntity
  8
0
  6
Continuous
 62
     7
370
    25
100
AcDbLine
 10
6759.9365572347
 20
5189.177759212
 30
0.0
 11
6759.9365572347
 21
5191.177759212
 31
0.0
  0
LINE
  5
EF
330
1F
100
AcDbEntity
  8
0
  6
Continuous
 62
     7
370
    25
100
AcDbLine
 10
6759.9365572347
 20
5189.177759212
 30
0.0
 11
6726.4365572347
 21
5189.177759212
 31
0.0
  0
ARC
  5
F0
330
1F
100
AcDbEntity
  8
0
  6
Continuous
 62
     7
370
    25
100
AcDbCircle
 10
6726.4365572347
 20
5190.677759212
 30
0.0
 40
1.5
100
AcDbArc
 50
180.0
 51
270.0
  0
LINE
  5
F1
330
1F
100
AcDbEntity
  8
0
  6
Continuous
 62
     7
370
    25
100
AcDbLine
 10
6724.9365572347
 20
5190.677759212
 30
0.0
 11
6724.9365572347
 21
5198.9351185249
 31
0.0
  0
LINE
  5
F2
330
1F
100
AcDbEntity
  8
0
  6
Continuous
 62
     7
370
    25
100
AcDbLine
 10
6726.9365572347
 20
5203.177759212
 30
0.0
 11
6726.9365572347
 21
5199.177759212
 31
0.0
  0
ARC
  5
F3
330
1F
100
AcDbEntity
  8
0
  6
Continuous
 62
     7
370
    25
100
AcDbCircle
 10
6721.4365572347
 20
5203.177759212
 30
0.0
 40
5.500000000001132
100
AcDbArc
 50
0.0
 51
309.5211963586
  0
LINE
  5
F4
330
1F
100
AcDbEntity
  8
0
  6
Continuous
 62
     7
370
    25
100
AcDbLine
 10
6761.9365572347
 20
5189.177759212
 30
0.0
 11
6761.9365572347
 21
5191.177759212
 31
0.0
  0
LINE
  5
F5
330
1F
100
AcDbEntity
  8
0
  6
Continuous
 62
     7
370
    25
100
AcDbLine
 10
6761.9365572347
 20
5189.177759212
 30
0.0
 11
6759.9365572347
 21
5189.177759212
 31
0.0
  0
LINE
  5
F6
330
1F
100
AcDbEntity
  8
0
  6
Continuous
 62
     7
370
    25
100
AcDbLine
 10
6723.0211400457
 20
5231.1730998478
 30
0.0
 11
7119.0192357741
 21
5229.9767607198
 31
0.0
  0
ARC
  5
F7
330
1F
100
AcDbEntity
  8
0
  6
Continuous
 62
     7
370
    25
100
AcDbCircle
 10
6722.9999926317
 20
5224.1731317917
 30
0.0
 40
7.000000000003975
100
AcDbArc
 50
89.826905798
 51
179.826905798
  0
LINE
  5
F8
330
1F
100
AcDbEntity
  8
0
  6
Continuous
 62
     7
370
    25
100
AcDbLine
 10
6715.9818982207
 20
5218.1943065862
 30
0.0
 11
7125.980027219
 21
5216.9556723366
 31
0.0
  0
LINE
  5
F9
330
1F
100
AcDbEntity
  8
0
  6
Continuous
 62
     7
370
    25
100
AcDbLine
 10
6716.0000245756
 20
5224.1942792057
 30
0.0
 11
6715.9818982207
 21
5218.1943065862
 31
0.0
  0
LINE
  5
FA
330
1F
100
AcDbEntity
  8
0
  6
Continuous
 62
     7
370
    25
100
AcDbLine
 10
7008.2761190374
 20
5210.0112311145
 30
0.0
 11
7000.5901195322
 21
5210.0344510796
 31
0.0
  0
LINE
  5
FB
330
1F
100
AcDbEntity
  8
0
  6
Continuous
 62
     7
370
    25
100
AcDbLine
 10
6748.9757055099
 20
5216.0946207612
 30
0.0
 11
6748.9817476282
 21
5218.0946116344
 31
0.0
  0
LINE
  5
FC
330
1F
100
AcDbEntity
  8
0
  6
Continuous
 62
     7
370
    25
100
AcDbLine
 10
6748.9757055099
 20
5216.0946207612
 30
0.0
 11
6719.9758378488
 21
5216.1822314764
 31
0.0
  0
ARC
  5
FD
330
1F
100
AcDbEntity
  8
0
  6
Continuous
 62
     7
370
    25
100
AcDbCircle
 10
6719.9697957305
 20
5214.1822406032
 30
0.0
 40
2.000000000000747
100
AcDbArc
 50
89.826905798
 51
179.826905798
  0
LINE
  5
FE
330
1F
100
AcDbEntity
  8
0
  6
Continuous
 62
     7
370
    25
100
AcDbLine
 10
6717.9493904751
 20
5207.4309542452
 30
0.0
 11
6717.9698048573
 21
5214.1882827215
 31
0.0
  0
LINE
  5
FF
330
1F
100
AcDbEntity
  8
0
  6
Continuous
 62
     7
370
    25
100
AcDbLine
 10
6715.9365823335
 20
5203.1943750373
 30
0.0
 11
6715.9818982207
 21
5218.1943065862
 31
0.0
  0
LINE
  5
100
330
1F
100
AcDbEntity
  8
0
  6
Continuous
 62
     7
370
    25
100
AcDbLine
 10
6750.9756963831
 20
5216.0885786429
 30
0.0
 11
6750.9817385013
 21
5218.0885695161
 31
0.0
  0
LINE
  5
101
330
1F
100
AcDbEntity
  8
0
  6
Continuous
 62
     7
370
    25
100
AcDbLine
 10
6750.9756963831
 20
5216.0885786429
 30
0.0
 11
6748.9757055099
 21
5216.0946207612
 31
0.0
  0
LINE
  5
102
330
1F
100
AcDbEntity
  8
0
  6
Continuous
 62
     8
370
    25
100
AcDbLine
 10
7133.0076789599
 20
5199.177759212
 30
0.0
 11
6968.3399705858
 21
5199.177759212
 31
0.0
  0
LINE
  5
103
330
1F
100
AcDbEntity
  8
0
  6
Continuous
 62
     8
370
    25
100
AcDbLine
 10
6968.3399705858
 20
5193.177759212
 30
0.0
 11
7133.0076789599
 21
5193.177759212
 31
0.0
  0
LINE
  5
104
330
1F
100
AcDbEntity
  8
0
  6
Continuous
 62
     8
370
    25
100
AcDbLine
 10
7125.9979705571
 20
5222.955645509
 30
0.0
 11
6716.0000245756
 21
5224.1942792057
 31
0.0
  0
LINE
  5
105
330
1F
100
AcDbEntity
  8
0
  6
Continuous
 62
     7
370
    25
100
AcDbLine
 10
6341.3329185544
 20
4945.7800163731
 30
0.0
 11
6328.8329185544
 21
4945.7800163731
 31
0.0
  0
LINE
  5
106
330
1F
100
AcDbEntity
  8
0
  6
Continuous
 62
     7
370
    25
100
AcDbLine
 10
6218.8329185544
 20
4945.7800163731
 30
0.0
 11
6206.3329185544
 21
4945.7800163731
 31
0.0
  0
LINE
  5
107
330
1F
100
AcDbEntity
  8
0
  6
Continuous
 62
     7
370
    25
100
AcDbLine
 10
6441.3329185544
 20
4768.3751994577
 30
0.0
 11
6441.3329185544
 21
4768.3933258126
 31
0.0
  0
LINE
  5
108
330
1F
100
AcDbEntity
  8
0
  6
Continuous
 62
     7
370
    25
100
AcDbLine
 10
6106.3329185544
 20
4768.3933258126
 30
0.0
 11
6106.3329185544
 21
4768.3751994577
 31
0.0
  0
LWPOLYLINE
  5
109
330
1F
100
AcDbEntity
  8
0
  6
Continuous
 62
     7
370
    25
100
AcDbPolyline
 90
        8
 70
   128
 43
0.0
 10
6401.6715850792
 20
4934.7800163731
 10
6410.5701206455
 20
4916.3000768079
 10
6418.9529852218
 20
4896.9370805958
 10
6426.5981918737
 20
4877.2372113132
 10
6433.4863468937
 20
4857.2870241051
 10
6439.6040703481
 20
4837.0544330053
 10
6444.8837291892
 20
4816.5181006716
 10
6449.182360581
 20
4795.7066945988
  0
LWPOLYLINE
  5
10A
330
1F
100
AcDbEntity
  8
0
  6
Continuous
 62
     7
370
    25
100
AcDbPolyline
 90
        9
 70
   128
 43
0.0
 10
6401.6715850792
 20
4934.7800163731
 10
6401.6044540574
 20
4934.6706491541
 10
6401.398385123
 20
4934.3350395146
 10
6400.6346067276
 20
4933.0925697172
 10
6399.4275998095
 20
4931.1336890422
 10
6398.6200381704
 20
4929.8262110765
 10
6397.7306883559
 20
4928.3892041423
 10
6396.6446151152
 20
4926.6384180405
 10
6396.5620650999
 20
4926.5056932236
  0
LINE
  5
10B
330
1F
100
AcDbEntity
  8
0
  6
Continuous
 62
     7
370
    25
100
AcDbLine
 10
6145.9942520296
 20
4934.7800163731
 30
0.0
 11
6156.7568905155
 21
4934.7800163731
 31
0.0
  0
LINE
  5
10C
330
1F
100
AcDbEntity
  8
0
  6
Continuous
 62
     7
370
    25
100
AcDbLine
 10
6390.9089465933
 20
4934.7800163731
 30
0.0
 11
6401.6715850792
 21
4934.7800163731
 31
0.0
  0
LWPOLYLINE
  5
10D
330
1F
100
AcDbEntity
  8
0
  6
Continuous
 62
     7
370
    25
100
AcDbPolyline
 90
        9
 70
   128
 43
0.0
 10
6145.9942520296
 20
4934.7800163731
 10
6146.0613830514
 20
4934.6706491541
 10
6146.2674519858
 20
4934.3350395146
 10
6147.0312303812
 20
4933.0925697172
 10
6148.2382372993
 20
4931.1336890422
 10
6149.0457989384
 20
4929.8262110765
 10
6149.9351487528
 20
4928.3892041423
 10
6151.0212219936
 20
4926.6384180405
 10
6151.1154648652
 20
4926.4868933214
  0
LWPOLYLINE
  5
10E
330
1F
100
AcDbEntity
  8
0
  6
Continuous
 62
     7
370
    25
100
AcDbPolyline
 90
        8
 70
   128
 43
0.0
 10
6098.4834765278
 20
4795.7066945988
 10
6102.7709415194
 20
4816.4701731827
 10
6108.0617667607
 20
4837.0544330053
 10
6114.1696313473
 20
4857.256598531
 10
6121.0676452351
 20
4877.2372113132
 10
6128.7010030226
 20
4896.9081826055
 10
6137.0957164633
 20
4916.3000768079
 10
6145.9942520296
 20
4934.7800163731
  0
ARC
  5
10F
330
1F
100
AcDbEntity
  8
0
  6
Continuous
 62
     7
370
    25
100
AcDbCircle
 10
6273.8329185544
 20
4764.6262754055
 30
0.0
 40
178.0826192424882
100
AcDbArc
 50
169.9488030273
 51
175.3640606024
  0
LWPOLYLINE
  5
110
330
1F
100
AcDbEntity
  8
0
  6
Continuous
 62
     7
370
    25
100
AcDbPolyline
 90
       12
 70
   128
 43
0.0
 10
6106.3329185544
 20
4778.6090108823
 10
6106.2636368227
 20
4778.6118973493
 10
6105.1963161452
 20
4778.6562898133
 10
6104.1297942997
 20
4778.7005091887
 10
6102.5461810174
 20
4778.765912732
 10
6101.0258587506
 20
4778.828418967
 10
6099.697290114
 20
4778.8828170985
 10
6098.5211146289
 20
4778.9308028701
 10
6097.5963093457
 20
4778.9684204575
 10
6096.8959129983
 20
4778.9968444086
 10
6096.4787601298
 20
4779.0137469015
 10
6096.3329185544
 20
4779.0196515301
  0
ARC
  5
111
330
1F
100
AcDbEntity
  8
0
  6
Continuous
 62
     7
370
    25
100
AcDbCircle
 10
6273.8329185544
 20
4764.6262754055
 30
0.0
 40
178.0826192424877
100
AcDbArc
 50
4.6359393976
 51
10.0511969727
  0
LWPOLYLINE
  5
112
330
1F
100
AcDbEntity
  8
0
  6
Continuous
 62
     7
370
    25
100
AcDbPolyline
 90
       12
 70
   128
 43
0.0
 10
6441.3329185544
 20
4778.6090108823
 10
6441.4022002861
 20
4778.6118973493
 10
6442.4695209636
 20
4778.6562898133
 10
6443.536042809
 20
4778.7005091887
 10
6445.1196560914
 20
4778.765912732
 10
6446.6399783581
 20
4778.828418967
 10
6447.9685469947
 20
4778.8828170985
 10
6449.1447224798
 20
4778.9308028701
 10
6450.069527763
 20
4778.9684204575
 10
6450.7699241104
 20
4778.9968444086
 10
6451.1870769789
 20
4779.0137469015
 10
6451.3329185544
 20
4779.0196515301
  0
LINE
  5
113
330
1F
100
AcDbEntity
  8
0
  6
Continuous
 62
     7
370
    25
100
AcDbLine
 10
6451.3329185544
 20
4779.0196515301
 30
0.0
 11
6451.3329185544
 21
4693.376603022
 31
0.0
  0
LWPOLYLINE
  5
114
330
1F
100
AcDbEntity
  8
0
  6
Continuous
 62
     7
370
    25
100
AcDbPolyline
 90
        7
 70
   128
 43
0.0
 10
6441.3329185544
 20
4693.757060801
 10
6441.4048958785
 20
4693.7542824452
 10
6443.5349187482
 20
4693.6723306761
 10
6446.6390863478
 20
4693.5538132042
 10
6449.1442844702
 20
4693.4589374437
 10
6450.7698226375
 20
4693.3977375201
 10
6451.3329185544
 20
4693.376603022
  0
LWPOLYLINE
  5
115
330
1F
100
AcDbEntity
  8
0
  6
Continuous
 62
     7
370
    25
100
AcDbPolyline
 90
        7
 70
   128
 43
0.0
 10
6106.3329185544
 20
4693.757060801
 10
6106.2609412302
 20
4693.7542824452
 10
6104.1309183606
 20
4693.6723306761
 10
6101.026750761
 20
4693.5538132042
 10
6098.5215526386
 20
4693.4589374437
 10
6096.8960144712
 20
4693.3977375201
 10
6096.3329185544
 20
4693.376603022
  0
LINE
  5
116
330
1F
100
AcDbEntity
  8
0
  6
Continuous
 62
     7
370
    25
100
AcDbLine
 10
6096.3329185544
 20
4693.376603022
 30
0.0
 11
6096.3329185544
 21
4779.0196515301
 31
0.0
  0
ARC
  5
117
330
1F
100
AcDbEntity
  8
0
  6
Continuous
 62
     7
370
    25
100
AcDbCircle
 10
6273.8329185544
 20
4706.708894648
 30
0.0
 40
178.0
100
AcDbArc
 50
184.2955061419
 51
355.7044938581
  0
LINE
  5
118
330
1F
100
AcDbEntity
  8
0
  6
Continuous
 62
     7
370
    25
100
AcDbLine
 10
6341.3329185544
 20
4945.7800163731
 30
0.0
 11
6341.3329185544
 21
4945.7346753872
 31
0.0
  0
LINE
  5
119
330
1F
100
AcDbEntity
  8
0
  6
Continuous
 62
     7
370
    25
100
AcDbLine
 10
6328.8329185544
 20
4945.7346753872
 30
0.0
 11
6328.8329185544
 21
4945.7800163731
 31
0.0
  0
LINE
  5
11A
330
1F
100
AcDbEntity
  8
0
  6
Continuous
 62
     7
370
    25
100
AcDbLine
 10
6218.8329185544
 20
4945.7800163731
 30
0.0
 11
6218.8329185544
 21
4945.7346753872
 31
0.0
  0
LINE
  5
11B
330
1F
100
AcDbEntity
  8
0
  6
Continuous
 62
     7
370
    25
100
AcDbLine
 10
6206.3329185544
 20
4945.7346753872
 30
0.0
 11
6206.3329185544
 21
4945.7800163731
 31
0.0
  0
LWPOLYLINE
  5
11C
330
1F
100
AcDbEntity
  8
0
  6
Continuous
 62
     7
370
    25
100
AcDbPolyline
 90
       75
 70
   128
 43
0.0
 10
6168.6899620898
 20
4938.6954335621
 10
6159.7056207157
 20
4926.8545043154
 10
6151.5093677655
 20
4914.2788056939
 10
6144.1711300982
 20
4901.182138149
 10
6137.6147822556
 20
4887.5315272632
 10
6131.2552464544
 20
4871.8235133895
 10
6125.8559377903
 20
4855.604354383
 10
6121.4484825015
 20
4839.087105212
 10
6117.94998853
 20
4821.9999199511
 10
6115.4403087931
 20
4804.7392409081
 10
6113.8895720313
 20
4787.0991359918
 10
6113.3384159546
 20
4770.2184687893
 10
6113.6955797171
 20
4753.2196363985
 10
6114.9696448187
 20
4736.2649761465
 10
6117.2124549323
 20
4719.1225154944
 10
6120.4226742084
 20
4702.1350807596
 10
6124.6808320999
 20
4685.14162456
 10
6128.6073799149
 20
4672.4208835736
 10
6133.1721241157
 20
4659.8334227412
 10
6138.3683468504
 20
4647.4937735665
 10
6144.3066515851
 20
4635.2653057278
 10
6150.9294707871
 20
4623.3945408711
 10
6158.3521462818
 20
4611.8025874136
 10
6163.9986726531
 20
4603.9689053245
 10
6170.0136087955
 20
4596.4148777476
 10
6176.4872484481
 20
4589.0815425698
 10
6183.3458218499
 20
4582.107605867
 10
6190.7170223216
 20
4575.4269194393
 10
6198.4826288625
 20
4569.210211868
 10
6206.7335006989
 20
4563.4465065016
 10
6215.3633062577
 20
4558.269101173
 10
6224.4741095714
 20
4553.6822599019
 10
6233.9141646827
 20
4549.8208395982
 10
6243.5334288656
 20
4546.7751854746
 10
6253.3734528491
 20
4544.5471402189
 10
6263.5618794474
 20
4543.1634642459
 10
6273.8329185544
 20
4542.6972406723
 10
6283.0707790878
 20
4543.0741021526
 10
6292.248348394
 20
4544.1948299013
 10
6301.4538239536
 20
4546.080886204
 10
6310.4824991181
 20
4548.6869475122
 10
6320.8101119252
 20
4552.6249408875
 10
6330.7641180042
 20
4557.432825525
 10
6340.4545872445
 20
4563.138026449
 10
6349.6737959772
 20
4569.5794841888
 10
6356.9238777263
 20
4575.4055893726
 10
6363.8290734036
 20
4581.6374040156
 10
6370.4798153825
 20
4588.3351494147
 10
6376.7719503967
 20
4595.3714608554
 10
6382.8036923346
 20
4602.8369346446
 10
6388.4707822157
 20
4610.5833069766
 10
6395.4788162929
 20
4621.314645662
 10
6401.9022704519
 20
4632.5106455487
 10
6407.7048260434
 20
4644.0414487785
 10
6412.9802581495
 20
4656.0507770617
 10
6417.6451663848
 20
4668.3106982798
 10
6421.7584261987
 20
4680.9318119791
 10
6426.0027529603
 20
4696.7162339138
 10
6429.3807028723
 20
4712.8243757731
 10
6431.8765663194
 20
4729.09298383
 10
6433.5223302263
 20
4745.74300293
 10
6434.2779177791
 20
4762.457263263
 10
6434.1398611794
 20
4779.399463111
 10
6433.1630808284
 20
4795.5025633563
 10
6431.342814811
 20
4811.6351863334
 10
6428.6738333006
 20
4827.6489785969
 10
6425.078383517
 20
4843.75139788
 10
6420.5751496814
 20
4859.623220276
 10
6415.0643568878
 20
4875.4029224359
 10
6409.8778818789
 20
4887.9211245186
 10
6404.0303848851
 20
4900.1438289507
 10
6399.7043711723
 20
4908.1943768809
 10
6395.0643660501
 20
4916.0679190843
 10
6387.3975215722
 20
4927.6508883719
 10
6378.975875019
 20
4938.6954335621
  0
LWPOLYLINE
  5
11D
330
1F
100
AcDbEntity
  8
0
  6
Continuous
 62
     7
370
    25
100
AcDbPolyline
 90
        7
 70
   128
 43
0.0
 10
6378.975875019
 20
4938.6954335621
 10
6378.9840161326
 20
4938.7126299161
 10
6379.9960070239
 20
4940.8585558156
 10
6380.9450319576
 20
4942.8863390251
 10
6381.6486380423
 20
4944.4003178831
 10
6382.0959537125
 20
4945.3693167445
 10
6382.2538621277
 20
4945.7165490323
  0
LWPOLYLINE
  5
11E
330
1F
100
AcDbEntity
  8
0
  6
Continuous
 62
     7
370
    25
100
AcDbPolyline
 90
       83
 70
   128
 43
0.0
 10
6382.2538621277
 20
4945.7165490323
 10
6383.7966959517
 20
4943.8742296458
 10
6392.3994397205
 20
4932.7127097236
 10
6400.2492635493
 20
4921.0078010111
 10
6407.4926323018
 20
4908.5971258068
 10
6413.987127724
 20
4895.7775894158
 10
6417.9564501109
 20
4886.9262539132
 10
6421.5984577216
 20
4877.9351390932
 10
6425.7683533056
 20
4866.3153896633
 10
6429.4427652129
 20
4854.468549558
 10
6432.6101014336
 20
4842.4759550241
 10
6435.3132092893
 20
4830.1872836673
 10
6437.5100315564
 20
4817.7979360378
 10
6439.2265142214
 20
4805.156223337
 10
6440.4333179323
 20
4792.455631333
 10
6441.135583065
 20
4779.6653037051
 10
6441.3305473076
 20
4767.1372293843
 10
6441.0374907701
 20
4754.5633265361
 10
6440.2539690562
 20
4742.0104676216
 10
6438.958043337
 20
4729.3362401594
 10
6437.1530929795
 20
4716.7245278134
 10
6434.7994600865
 20
4704.0297527192
 10
6431.9113082126
 20
4691.445992501
 10
6428.4636260958
 20
4678.9429202231
 10
6425.4581017298
 20
4669.5117509481
 10
6422.1233040437
 20
4660.1920358898
 10
6416.425682406
 20
4646.3051404519
 10
6409.939236944
 20
4632.7696608184
 10
6402.507083037
 20
4619.4273596851
 10
6394.2147644021
 20
4606.6036391545
 10
6385.4979981603
 20
4594.9615542937
 10
6375.9693569692
 20
4583.9764184182
 10
6365.3578986942
 20
4573.5232744932
 10
6353.8946734967
 20
4564.0163762045
 10
6344.4434264404
 20
4557.4014015448
 10
6334.3565708218
 20
4551.4386480686
 10
6323.8181089076
 20
4546.3194379792
 10
6312.6833373108
 20
4542.0631037115
 10
6303.2032049154
 20
4539.3312955246
 10
6293.5076593532
 20
4537.3436939938
 10
6283.6873480806
 20
4536.1296264015
 10
6273.8329185544
 20
4535.7184200302
 10
6263.1269205304
 20
4536.199386839
 10
6252.4832744514
 20
4537.6213294865
 10
6242.0215507832
 20
4539.9528113044
 10
6231.5281692754
 20
4543.2612096523
 10
6221.7220546619
 20
4547.2670977922
 10
6212.2381285978
 20
4552.0230197496
 10
6203.1400236832
 20
4557.4546380224
 10
6194.2840947773
 20
4563.6302857058
 10
6184.5732051176
 20
4571.5057757113
 10
6175.4610455509
 20
4580.0690541974
 10
6166.7917769942
 20
4589.4243345961
 10
6158.7506637395
 20
4599.3262363049
 10
6152.5801860899
 20
4607.8633898434
 10
6144.3186396082
 20
4620.8388357453
 10
6136.9274554893
 20
4634.3306794306
 10
6132.4049994978
 20
4643.7180336911
 10
6128.2645776885
 20
4653.280262284
 10
6124.4516100418
 20
4663.1275111322
 10
6121.0173939704
 20
4673.1133271795
 10
6117.9453830801
 20
4683.2565470823
 10
6114.6995439766
 20
4695.7635432935
 10
6111.9830815532
 20
4708.456847473
 10
6109.8044208405
 20
4721.2535958845
 10
6108.1374896886
 20
4734.3158367757
 10
6107.012680424
 20
4747.4359729781
 10
6106.4222509362
 20
4760.7780720246
 10
6106.3842238978
 20
4774.1331952713
 10
6106.9019276072
 20
4787.5360042564
 10
6107.9385406892
 20
4800.511931375
 10
6109.5121941625
 20
4813.4897112214
 10
6111.6241395354
 20
4826.3907083439
 10
6114.3251768566
 20
4839.3843753733
 10
6117.5953108507
 20
4852.246388996
 10
6121.5112620523
 20
4865.1510206743
 10
6126.0363910156
 20
4877.8544662445
 10
6131.2157254011
 20
4890.3902789278
 10
6135.7739305647
 20
4900.1173654219
 10
6142.5597132175
 20
4912.8805472262
 10
6150.1165862532
 20
4925.2173567097
 10
6158.4475331923
 20
4937.0250348419
 10
6165.4119749811
 20
4945.7165490323
  0
LWPOLYLINE
  5
11F
330
1F
100
AcDbEntity
  8
0
  6
Continuous
 62
     7
370
    25
100
AcDbPolyline
 90
        7
 70
   128
 43
0.0
 10
6165.4119749811
 20
4945.7165490323
 10
6165.5698833962
 20
4945.3693167445
 10
6166.0171990665
 20
4944.4003178831
 10
6166.7208051511
 20
4942.8863390251
 10
6167.6698300848
 20
4940.8585558156
 10
6168.6818209761
 20
4938.7126299161
 10
6168.6899620898
 20
4938.6954335621
  0
ELLIPSE
  5
120
330
1F
100
AcDbEntity
  8
0
  6
Continuous
 62
     7
370
    25
100
AcDbEllipse
 10
6273.8329185544
 20
4768.3933258126
 30
0.0
 11
9.094947017729282E-13
 21
232.6567794275061
 31
0.0
210
0.0
220
0.0
230
1.0
 40
0.7199446344
 41
0.7040227238137198
 42
1.570797946401627
  0
ELLIPSE
  5
121
330
1F
100
AcDbEntity
  8
0
  6
Continuous
 62
     7
370
    25
100
AcDbEllipse
 10
6273.8329185544
 20
4768.3933258126
 30
0.0
 11
9.094947017729282E-13
 21
232.6567794275061
 31
0.0
210
0.0
220
0.0
230
1.0
 40
0.7199446344
 41
4.71238768121606
 42
5.579162583365893
  0
LINE
  5
122
330
1F
100
AcDbEntity
  8
0
  6
Continuous
 62
     7
370
    25
100
AcDbLine
 10
6165.4119749811
 20
4945.7165490323
 30
0.0
 11
6165.4119749811
 21
4945.7346753872
 31
0.0
  0
LINE
  5
123
330
1F
100
AcDbEntity
  8
0
  6
Continuous
 62
     7
370
    25
100
AcDbLine
 10
6382.2538621277
 20
4945.7165490323
 30
0.0
 11
6382.2538621277
 21
4945.7346753872
 31
0.0
  0
LINE
  5
124
330
1F
100
AcDbEntity
  8
0
  6
Continuous
 62
     7
370
    25
100
AcDbLine
 10
6378.975875019
 20
4938.6954335621
 30
0.0
 11
6168.6899620898
 21
4938.6954335621
 31
0.0
  0
LINE
  5
125
330
1F
100
AcDbEntity
  8
0
  6
Continuous
 62
     7
370
    25
100
AcDbLine
 10
6165.4119749811
 20
4945.7165490323
 30
0.0
 11
6382.2538621277
 21
4945.7165490323
 31
0.0
  0
LINE
  5
126
330
1F
100
AcDbEntity
  8
0
  6
Continuous
 62
     7
370
    25
100
AcDbLine
 10
6221.5575266227
 20
4945.7346753872
 30
0.0
 11
6165.4119749811
 21
4945.7346753872
 31
0.0
  0
LINE
  5
127
330
1F
100
AcDbEntity
  8
0
  6
Continuous
 62
     7
370
    25
100
AcDbLine
 10
6221.5575266227
 20
4945.7799912743
 30
0.0
 11
6221.5575266227
 21
4945.7346753872
 31
0.0
  0
LINE
  5
128
330
1F
100
AcDbEntity
  8
0
  6
Continuous
 62
     7
370
    25
100
AcDbLine
 10
6221.5575266227
 20
4945.7799912743
 30
0.0
 11
6233.8575266227
 21
4945.7799912743
 31
0.0
  0
LINE
  5
129
330
1F
100
AcDbEntity
  8
0
  6
Continuous
 62
     7
370
    25
100
AcDbLine
 10
6233.8575266227
 20
4945.7799912743
 30
0.0
 11
6233.8575266227
 21
4945.7346753872
 31
0.0
  0
LINE
  5
12A
330
1F
100
AcDbEntity
  8
0
  6
Continuous
 62
     7
370
    25
100
AcDbLine
 10
6313.808310486
 20
4945.7346753872
 30
0.0
 11
6233.8575266227
 21
4945.7346753872
 31
0.0
  0
LINE
  5
12B
330
1F
100
AcDbEntity
  8
0
  6
Continuous
 62
     7
370
    25
100
AcDbLine
 10
6313.808310486
 20
4945.7799912743
 30
0.0
 11
6313.808310486
 21
4945.7346753872
 31
0.0
  0
LINE
  5
12C
330
1F
100
AcDbEntity
  8
0
  6
Continuous
 62
     7
370
    25
100
AcDbLine
 10
6313.808310486
 20
4945.7799912743
 30
0.0
 11
6326.108310486
 21
4945.7799912743
 31
0.0
  0
LINE
  5
12D
330
1F
100
AcDbEntity
  8
0
  6
Continuous
 62
     7
370
    25
100
AcDbLine
 10
6326.108310486
 20
4945.7799912743
 30
0.0
 11
6326.108310486
 21
4945.7346753872
 31
0.0
  0
LINE
  5
12E
330
1F
100
AcDbEntity
  8
0
  6
Continuous
 62
     7
370
    25
100
AcDbLine
 10
6382.2538621277
 20
4945.7346753872
 30
0.0
 11
6326.108310486
 21
4945.7346753872
 31
0.0
  0
LINE
  5
12F
330
1F
100
AcDbEntity
  8
0
  6
Continuous
 62
     8
370
    25
100
AcDbLine
 10
6449.182360581
 20
4795.7066945988
 30
0.0
 11
6440.3046674469
 21
4794.1331371304
 31
0.0
  0
LINE
  5
130
330
1F
100
AcDbEntity
  8
0
  6
Continuous
 62
     8
370
    25
100
AcDbLine
 10
6098.4834765278
 20
4795.7066945988
 30
0.0
 11
6107.3611696618
 21
4794.1331371304
 31
0.0
  0
ARC
  5
131
330
1F
100
AcDbEntity
  8
0
  6
Continuous
 62
     8
370
    25
100
AcDbCircle
 10
6273.8329185544
 20
4706.708894648
 30
0.0
 40
168.0000000000009
100
AcDbArc
 50
184.4215624392
 51
252.8029273791
  0
ARC
  5
132
330
1F
100
AcDbEntity
  8
0
  6
Continuous
 62
     8
370
    25
100
AcDbCircle
 10
6273.8329185544
 20
4706.708894648
 30
0.0
 40
168.0000000000003
100
AcDbArc
 50
287.6217703456
 51
355.5784375608
  0
LINE
  5
133
330
1F
100
AcDbEntity
  8
0
  6
Continuous
 62
     8
370
    25
100
AcDbLine
 10
6106.3329185544
 20
4768.3751994577
 30
0.0
 11
6106.3329185544
 21
4693.757060801
 31
0.0
  0
LINE
  5
134
330
1F
100
AcDbEntity
  8
0
  6
Continuous
 62
     8
370
    25
100
AcDbLine
 10
6441.3329185544
 20
4693.757060801
 30
0.0
 11
6441.3329185544
 21
4768.3751994577
 31
0.0
  0
ENDSEC
  0
SECTION
  2
OBJECTS
  0
DICTIONARY
  5
C
330
0
100
AcDbDictionary
281
     1
  3
ACAD_GROUP
350
D
  3
ACAD_LAYOUT
350
1A
  3
ACAD_MLINESTYLE
350
17
  3
ACAD_PLOTSETTINGS
350
19
  3
ACAD_PLOTSTYLENAME
350
E
  3
ACAD_SCALELIST
350
47
  3
DWGPROPS
350
135
  0
DICTIONARY
  5
D
102
{ACAD_REACTORS
330
C
102
}
330
C
100
AcDbDictionary
281
     1
  0
DICTIONARY
  5
1A
102
{ACAD_REACTORS
330
C
102
}
330
C
100
AcDbDictionary
281
     1
  3
Layout1
350
1E
  3
Layout2
350
26
  3
Model
350
22
  0
DICTIONARY
  5
17
102
{ACAD_REACTORS
330
C
102
}
330
C
100
AcDbDictionary
281
     1
  3
Standard
350
18
  0
DICTIONARY
  5
19
102
{ACAD_REACTORS
330
C
102
}
330
C
100
AcDbDictionary
281
     1
  0
ACDBDICTIONARYWDFLT
  5
E
102
{ACAD_REACTORS
330
C
102
}
330
C
100
AcDbDictionary
281
     1
  3
Normal
350
F
100
AcDbDictionaryWithDefault
340
F
  0
DICTIONARY
  5
47
102
{ACAD_REACTORS
330
C
102
}
330
C
100
AcDbDictionary
281
     1
  3
A0
350
48
  3
A1
350
49
  3
A2
350
4A
  3
A3
350
4B
  3
A4
350
4C
  3
A5
350
4D
  3
A6
350
4E
  3
A7
350
4F
  3
A8
350
50
  3
A9
350
51
  3
B0
350
52
  3
B1
350
53
  3
B2
350
54
  3
B3
350
55
  3
B4
350
56
  3
B5
350
57
  3
B6
350
58
  3
B7
350
59
  3
B8
350
5A
  3
B9
350
5B
  3
C0
350
5C
  3
C1
350
5D
  3
C2
350
5E
  3
C3
350
5F
  3
C4
350
60
  3
C5
350
61
  3
C6
350
62
  3
C7
350
63
  3
C8
350
64
  3
C9
350
65
  3
D0
350
66
  3
D1
350
67
  3
D2
350
68
  0
XRECORD
  5
135
102
{ACAD_REACTORS
330
C
102
}
330
C
100
AcDbXrecord
280
     1
  1
DWGPROPS COOKIE
  2

  3

  4

  6

  7

  8
radek.stransky
  9

300
=
301
=
302
=
303
=
304
=
305
=
306
=
307
=
308
=
309
=
 40
0.0
 41
2459110.231639155
 42
2459110.231639271
  1

 90
        0
  0
LAYOUT
  5
1E
102
{ACAD_REACTORS
330
1A
102
}
330
1A
100
AcDbPlotSettings
  1

  2
none_device
  4

  6

 40
0.0
 41
0.0
 42
0.0
 43
0.0
 44
0.0
 45
0.0
 46
0.0
 47
0.0
 48
0.0
 49
0.0
140
0.0
141
0.0
142
1.0
143
1.0
 70
   688
 72
     1
 73
     0
 74
     5
  7

 75
    16
147
1.0
148
0.0
149
0.0
100
AcDbLayout
  1
Layout1
 70
     1
 71
     1
 10
0.0
 20
0.0
 11
420.0
 21
297.0
 12
0.0
 22
0.0
 32
0.0
 14
1.0000000000E+20
 24
1.0000000000E+20
 34
1.0000000000E+20
 15
-1.0000000000E+20
 25
-1.0000000000E+20
 35
-1.0000000000E+20
146
0.0
 13
0.0
 23
0.0
 33
0.0
 16
1.0
 26
0.0
 36
0.0
 17
0.0
 27
1.0
 37
0.0
 76
     0
330
1B
  0
LAYOUT
  5
26
102
{ACAD_REACTORS
330
1A
102
}
330
1A
100
AcDbPlotSettings
  1

  2
none_device
  4

  6

 40
0.0
 41
0.0
 42
0.0
 43
0.0
 44
0.0
 45
0.0
 46
0.0
 47
0.0
 48
0.0
 49
0.0
140
0.0
141
0.0
142
1.0
143
1.0
 70
   688
 72
     1
 73
     0
 74
     5
  7

 75
    16
147
1.0
148
0.0
149
0.0
100
AcDbLayout
  1
Layout2
 70
     1
 71
     2
 10
0.0
 20
0.0
 11
0.0
 21
0.0
 12
0.0
 22
0.0
 32
0.0
 14
0.0
 24
0.0
 34
0.0
 15
0.0
 25
0.0
 35
0.0
146
0.0
 13
0.0
 23
0.0
 33
0.0
 16
1.0
 26
0.0
 36
0.0
 17
0.0
 27
1.0
 37
0.0
 76
     0
330
23
  0
LAYOUT
  5
22
102
{ACAD_REACTORS
330
1A
102
}
330
1A
100
AcDbPlotSettings
  1

  2
none_device
  4
Letter_(8.50_x_11.00_Inches)
  6

 40
6.35
 41
6.35
 42
6.35000508
 43
6.35000508
 44
215.9
 45
279.4
 46
0.0
 47
0.0
 48
0.0
 49
0.0
140
0.0
141
0.0
142
1.0
143
1.0
 70
  1712
 72
     1
 73
     0
 74
     0
  7

 75
     0
147
1.0
148
0.0
149
0.0
100
AcDbLayout
  1
Model
 70
     1
 71
     0
 10
0.0
 20
0.0
 11
20000.0
 21
10000.0
 12
0.0
 22
0.0
 32
0.0
 14
0.0
 24
0.0
 34
0.0
 15
20000.0
 25
10000.0
 35
0.0
146
0.0
 13
0.0
 23
0.0
 33
0.0
 16
1.0
 26
0.0
 36
0.0
 17
0.0
 27
1.0
 37
0.0
 76
     0
330
1F
331
29
  0
MLINESTYLE
  5
18
102
{ACAD_REACTORS
330
17
102
}
330
17
100
AcDbMlineStyle
  2
Standard
 70
     0
  3

 62
   256
 51
90.0
 52
90.0
 71
     2
 49
0.5
 62
   256
  6
BYLAYER
 49
-0.5
 62
   256
  6
BYLAYER
  0
ACDBPLACEHOLDER
  5
F
102
{ACAD_REACTORS
330
E
102
}
330
E
  0
SCALE
  5
48
102
{ACAD_REACTORS
330
47
102
}
330
47
100
AcDbScale
 70
     0
300
1:1
140
1.0
141
1.0
290
     1
  0
SCALE
  5
49
102
{ACAD_REACTORS
330
47
102
}
330
47
100
AcDbScale
 70
     0
300
1:2
140
1.0
141
2.0
290
     0
  0
SCALE
  5
4A
102
{ACAD_REACTORS
330
47
102
}
330
47
100
AcDbScale
 70
     0
300
1:4
140
1.0
141
4.0
290
     0
  0
SCALE
  5
4B
102
{ACAD_REACTORS
330
47
102
}
330
47
100
AcDbScale
 70
     0
300
1:5
140
1.0
141
5.0
290
     0
  0
SCALE
  5
4C
102
{ACAD_REACTORS
330
47
102
}
330
47
100
AcDbScale
 70
     0
300
1:8
140
1.0
141
8.0
290
     0
  0
SCALE
  5
4D
102
{ACAD_REACTORS
330
47
102
}
330
47
100
AcDbScale
 70
     0
300
1:10
140
1.0
141
10.0
290
     0
  0
SCALE
  5
4E
102
{ACAD_REACTORS
330
47
102
}
330
47
100
AcDbScale
 70
     0
300
1:16
140
1.0
141
16.0
290
     0
  0
SCALE
  5
4F
102
{ACAD_REACTORS
330
47
102
}
330
47
100
AcDbScale
 70
     0
300
1:20
140
1.0
141
20.0
290
     0
  0
SCALE
  5
50
102
{ACAD_REACTORS
330
47
102
}
330
47
100
AcDbScale
 70
     0
300
1:30
140
1.0
141
30.0
290
     0
  0
SCALE
  5
51
102
{ACAD_REACTORS
330
47
102
}
330
47
100
AcDbScale
 70
     0
300
1:40
140
1.0
141
40.0
290
     0
  0
SCALE
  5
52
102
{ACAD_REACTORS
330
47
102
}
330
47
100
AcDbScale
 70
     0
300
1:50
140
1.0
141
50.0
290
     0
  0
SCALE
  5
53
102
{ACAD_REACTORS
330
47
102
}
330
47
100
AcDbScale
 70
     0
300
1:100
140
1.0
141
100.0
290
     0
  0
SCALE
  5
54
102
{ACAD_REACTORS
330
47
102
}
330
47
100
AcDbScale
 70
     0
300
2:1
140
2.0
141
1.0
290
     0
  0
SCALE
  5
55
102
{ACAD_REACTORS
330
47
102
}
330
47
100
AcDbScale
 70
     0
300
4:1
140
4.0
141
1.0
290
     0
  0
SCALE
  5
56
102
{ACAD_REACTORS
330
47
102
}
330
47
100
AcDbScale
 70
     0
300
8:1
140
8.0
141
1.0
290
     0
  0
SCALE
  5
57
102
{ACAD_REACTORS
330
47
102
}
330
47
100
AcDbScale
 70
     0
300
10:1
140
10.0
141
1.0
290
     0
  0
SCALE
  5
58
102
{ACAD_REACTORS
330
47
102
}
330
47
100
AcDbScale
 70
     0
300
100:1
140
100.0
141
1.0
290
     0
  0
SCALE
  5
59
102
{ACAD_REACTORS
330
47
102
}
330
47
100
AcDbScale
 70
     0
300
1/128" = 1'-0"
140
0.0078125
141
12.0
290
     0
  0
SCALE
  5
5A
102
{ACAD_REACTORS
330
47
102
}
330
47
100
AcDbScale
 70
     0
300
1/64" = 1'-0"
140
0.015625
141
12.0
290
     0
  0
SCALE
  5
5B
102
{ACAD_REACTORS
330
47
102
}
330
47
100
AcDbScale
 70
     0
300
1/32" = 1'-0"
140
0.03125
141
12.0
290
     0
  0
SCALE
  5
5C
102
{ACAD_REACTORS
330
47
102
}
330
47
100
AcDbScale
 70
     0
300
1/16" = 1'-0"
140
0.0625
141
12.0
290
     0
  0
SCALE
  5
5D
102
{ACAD_REACTORS
330
47
102
}
330
47
100
AcDbScale
 70
     0
300
3/32" = 1'-0"
140
0.09375
141
12.0
290
     0
  0
SCALE
  5
5E
102
{ACAD_REACTORS
330
47
102
}
330
47
100
AcDbScale
 70
     0
300
1/8" = 1'-0"
140
0.125
141
12.0
290
     0
  0
SCALE
  5
5F
102
{ACAD_REACTORS
330
47
102
}
330
47
100
AcDbScale
 70
     0
300
3/16" = 1'-0"
140
0.1875
141
12.0
290
     0
  0
SCALE
  5
60
102
{ACAD_REACTORS
330
47
102
}
330
47
100
AcDbScale
 70
     0
300
1/4" = 1'-0"
140
0.25
141
12.0
290
     0
  0
SCALE
  5
61
102
{ACAD_REACTORS
330
47
102
}
330
47
100
AcDbScale
 70
     0
300
3/8" = 1'-0"
140
0.375
141
12.0
290
     0
  0
SCALE
  5
62
102
{ACAD_REACTORS
330
47
102
}
330
47
100
AcDbScale
 70
     0
300
1/2" = 1'-0"
140
0.5
141
12.0
290
     0
  0
SCALE
  5
63
102
{ACAD_REACTORS
330
47
102
}
330
47
100
AcDbScale
 70
     0
300
3/4" = 1'-0"
140
0.75
141
12.0
290
     0
  0
SCALE
  5
64
102
{ACAD_REACTORS
330
47
102
}
330
47
100
AcDbScale
 70
     0
300
1" = 1'-0"
140
1.0
141
12.0
290
     0
  0
SCALE
  5
65
102
{ACAD_REACTORS
330
47
102
}
330
47
100
AcDbScale
 70
     0
300
1-1/2" = 1'-0"
140
1.5
141
12.0
290
     0
  0
SCALE
  5
66
102
{ACAD_REACTORS
330
47
102
}
330
47
100
AcDbScale
 70
     0
300
3" = 1'-0"
140
3.0
141
12.0
290
     0
  0
SCALE
  5
67
102
{ACAD_REACTORS
330
47
102
}
330
47
100
AcDbScale
 70
     0
300
6" = 1'-0"
140
6.0
141
12.0
290
     0
  0
SCALE
  5
68
102
{ACAD_REACTORS
330
47
102
}
330
47
100
AcDbScale
 70
     0
300
1'-0" = 1'-0"
140
12.0
141
12.0
290
     0
  0
ENDSEC
  0
EOF
