  0
SECTION
  2
HEADER
  9
$ACADVER
  1
AC1015
  9
$ACADMAINTVER
 70
     6
  9
$DWGCODEPAGE
  3
ANSI_1250
  9
$INSBASE
 10
0.0
 20
0.0
 30
0.0
  9
$EXTMIN
 10
0.0
 20
0.0
 30
0.0
  9
$EXTMAX
 10
20000.0
 20
10000.0
 30
0.0
  9
$LIMMIN
 10
0.0
 20
0.0
  9
$LIMMAX
 10
20000.0
 20
10000.0
  9
$ORTHOMODE
 70
     0
  9
$REGENMODE
 70
     1
  9
$FILLMODE
 70
     1
  9
$QTEXTMODE
 70
     0
  9
$MIRRTEXT
 70
     1
  9
$LTSCALE
 40
1.0
  9
$ATTMODE
 70
     1
  9
$TEXTSIZE
 40
2.0
  9
$TRACEWID
 40
1.0
  9
$TEXTSTYLE
  7
Standard
  9
$CLAYER
  8
0
  9
$CELTYPE
  6
ByLayer
  9
$CECOLOR
 62
   256
  9
$CELTSCALE
 40
1.0
  9
$DISPSILH
 70
     0
  9
$DIMSCALE
 40
1.0
  9
$DIMASZ
 40
2.0
  9
$DIMEXO
 40
1.0
  9
$DIMDLI
 40
3.75
  9
$DIMRND
 40
0.0
  9
$DIMDLE
 40
0.0
  9
$DIMEXE
 40
1.0
  9
$DIMTP
 40
0.0
  9
$DIMTM
 40
0.0
  9
$DIMTXT
 40
2.0
  9
$DIMCEN
 40
2.5
  9
$DIMTSZ
 40
0.0
  9
$DIMTOL
 70
     0
  9
$DIMLIM
 70
     0
  9
$DIMTIH
 70
     1
  9
$DIMTOH
 70
     1
  9
$DIMSE1
 70
     0
  9
$DIMSE2
 70
     0
  9
$DIMTAD
 70
     1
  9
$DIMZIN
 70
     0
  9
$DIMBLK
  1

  9
$DIMASO
 70
     1
  9
$DIMSHO
 70
     1
  9
$DIMPOST
  1

  9
$DIMAPOST
  1

  9
$DIMALT
 70
     0
  9
$DIMALTD
 70
     3
  9
$DIMALTF
 40
0.0393700787
  9
$DIMLFAC
 40
1.0
  9
$DIMTOFL
 70
     1
  9
$DIMTVP
 40
0.0
  9
$DIMTIX
 70
     0
  9
$DIMSOXD
 70
     0
  9
$DIMSAH
 70
     0
  9
$DIMBLK1
  1

  9
$DIMBLK2
  1

  9
$DIMSTYLE
  2
ISO-25
  9
$DIMCLRD
 70
     0
  9
$DIMCLRE
 70
     0
  9
$DIMCLRT
 70
     0
  9
$DIMTFAC
 40
1.0
  9
$DIMGAP
 40
1.524
  9
$DIMJUST
 70
     0
  9
$DIMSD1
 70
     0
  9
$DIMSD2
 70
     0
  9
$DIMTOLJ
 70
     0
  9
$DIMTZIN
 70
     0
  9
$DIMALTZ
 70
     0
  9
$DIMALTTZ
 70
     0
  9
$DIMUPT
 70
     0
  9
$DIMDEC
 70
     2
  9
$DIMTDEC
 70
     0
  9
$DIMALTU
 70
     2
  9
$DIMALTTD
 70
     3
  9
$DIMTXSTY
  7
Standard
  9
$DIMAUNIT
 70
     0
  9
$DIMADEC
 70
     2
  9
$DIMALTRND
 40
0.0
  9
$DIMAZIN
 70
     0
  9
$DIMDSEP
 70
    44
  9
$DIMATFIT
 70
     3
  9
$DIMFRAC
 70
     0
  9
$DIMLDRBLK
  1

  9
$DIMLUNIT
 70
     2
  9
$DIMLWD
 70
    -2
  9
$DIMLWE
 70
    -2
  9
$DIMTMOVE
 70
     0
  9
$LUNITS
 70
     2
  9
$LUPREC
 70
     3
  9
$SKETCHINC
 40
1.0
  9
$FILLETRAD
 40
10.0
  9
$AUNITS
 70
     0
  9
$AUPREC
 70
     2
  9
$MENU
  1
.
  9
$ELEVATION
 40
0.0
  9
$PELEVATION
 40
0.0
  9
$THICKNESS
 40
0.0
  9
$LIMCHECK
 70
     0
  9
$CHAMFERA
 40
0.0
  9
$CHAMFERB
 40
0.0
  9
$CHAMFERC
 40
0.0
  9
$CHAMFERD
 40
0.0
  9
$SKPOLY
 70
     0
  9
$TDCREATE
 40
2459100.477454097
  9
$TDUCREATE
 40
2459100.394120764
  9
$TDUPDATE
 40
2459100.477456806
  9
$TDUUPDATE
 40
2459100.394123472
  9
$TDINDWG
 40
0.0000000116
  9
$TDUSRTIMER
 40
0.0000000116
  9
$USRTIMER
 70
     1
  9
$ANGBASE
 50
0.0
  9
$ANGDIR
 70
     0
  9
$PDMODE
 70
     0
  9
$PDSIZE
 40
-1.0
  9
$PLINEWID
 40
0.0
  9
$SPLFRAME
 70
     0
  9
$SPLINETYPE
 70
     6
  9
$SPLINESEGS
 70
     8
  9
$HANDSEED
  5
322
  9
$SURFTAB1
 70
     6
  9
$SURFTAB2
 70
     6
  9
$SURFTYPE
 70
     6
  9
$SURFU
 70
     6
  9
$SURFV
 70
     6
  9
$UCSBASE
  2

  9
$UCSNAME
  2

  9
$UCSORG
 10
0.0
 20
0.0
 30
0.0
  9
$UCSXDIR
 10
1.0
 20
0.0
 30
0.0
  9
$UCSYDIR
 10
0.0
 20
1.0
 30
0.0
  9
$UCSORTHOREF
  2

  9
$UCSORTHOVIEW
 70
     0
  9
$UCSORGTOP
 10
0.0
 20
0.0
 30
0.0
  9
$UCSORGBOTTOM
 10
0.0
 20
0.0
 30
0.0
  9
$UCSORGLEFT
 10
0.0
 20
0.0
 30
0.0
  9
$UCSORGRIGHT
 10
0.0
 20
0.0
 30
0.0
  9
$UCSORGFRONT
 10
0.0
 20
0.0
 30
0.0
  9
$UCSORGBACK
 10
0.0
 20
0.0
 30
0.0
  9
$PUCSBASE
  2

  9
$PUCSNAME
  2

  9
$PUCSORG
 10
0.0
 20
0.0
 30
0.0
  9
$PUCSXDIR
 10
1.0
 20
0.0
 30
0.0
  9
$PUCSYDIR
 10
0.0
 20
1.0
 30
0.0
  9
$PUCSORTHOREF
  2

  9
$PUCSORTHOVIEW
 70
     0
  9
$PUCSORGTOP
 10
0.0
 20
0.0
 30
0.0
  9
$PUCSORGBOTTOM
 10
0.0
 20
0.0
 30
0.0
  9
$PUCSORGLEFT
 10
0.0
 20
0.0
 30
0.0
  9
$PUCSORGRIGHT
 10
0.0
 20
0.0
 30
0.0
  9
$PUCSORGFRONT
 10
0.0
 20
0.0
 30
0.0
  9
$PUCSORGBACK
 10
0.0
 20
0.0
 30
0.0
  9
$USERI1
 70
     0
  9
$USERI2
 70
     0
  9
$USERI3
 70
     0
  9
$USERI4
 70
     0
  9
$USERI5
 70
     0
  9
$USERR1
 40
0.0
  9
$USERR2
 40
0.0
  9
$USERR3
 40
0.0
  9
$USERR4
 40
0.0
  9
$USERR5
 40
0.0
  9
$WORLDVIEW
 70
     1
  9
$SHADEDGE
 70
     3
  9
$SHADEDIF
 70
    70
  9
$TILEMODE
 70
     1
  9
$MAXACTVP
 70
    64
  9
$PINSBASE
 10
0.0
 20
0.0
 30
0.0
  9
$PLIMCHECK
 70
     0
  9
$PEXTMIN
 10
1.0000000000E+20
 20
1.0000000000E+20
 30
1.0000000000E+20
  9
$PEXTMAX
 10
-1.0000000000E+20
 20
-1.0000000000E+20
 30
-1.0000000000E+20
  9
$PLIMMIN
 10
0.0
 20
0.0
  9
$PLIMMAX
 10
420.0
 20
297.0
  9
$UNITMODE
 70
     0
  9
$VISRETAIN
 70
     1
  9
$PLINEGEN
 70
     0
  9
$PSLTSCALE
 70
     1
  9
$TREEDEPTH
 70
  3020
  9
$CMLSTYLE
  2
Standard
  9
$CMLJUST
 70
     0
  9
$CMLSCALE
 40
20.0
  9
$PROXYGRAPHICS
 70
     1
  9
$MEASUREMENT
 70
     1
  9
$CELWEIGHT
370
    -1
  9
$ENDCAPS
280
     0
  9
$JOINSTYLE
280
     0
  9
$LWDISPLAY
290
     1
  9
$INSUNITS
 70
     4
  9
$HYPERLINKBASE
  1

  9
$STYLESHEET
  1

  9
$XEDIT
290
     1
  9
$CEPSNTYPE
380
     0
  9
$PSTYLEMODE
290
     1
  9
$FINGERPRINTGUID
  2
{93a1cd9d-6293-429b-a5b6-761aa8947681}
  9
$VERSIONGUID
  2
{FAEB1C32-E019-11D5-929B-00C0DF256EC4}
  9
$EXTNAMES
290
     1
  9
$PSVPSCALE
 40
0.0
  9
$OLESTARTUP
290
     0
  0
ENDSEC
  0
SECTION
  2
CLASSES
  0
CLASS
  1
ACDBDICTIONARYWDFLT
  2
AcDbDictionaryWithDefault
  3
ObjectDBX Classes
 90
        0
280
     0
281
     0
  0
CLASS
  1
VISUALSTYLE
  2
AcDbVisualStyle
  3
ObjectDBX Classes
 90
     4095
280
     0
281
     0
  0
CLASS
  1
MATERIAL
  2
AcDbMaterial
  3
ObjectDBX Classes
 90
     1153
280
     0
281
     0
  0
CLASS
  1
SCALE
  2
AcDbScale
  3
ObjectDBX Classes
 90
     1153
280
     0
281
     0
  0
CLASS
  1
TABLESTYLE
  2
AcDbTableStyle
  3
ObjectDBX Classes
 90
     4095
280
     0
281
     0
  0
CLASS
  1
MLEADERSTYLE
  2
AcDbMLeaderStyle
  3
ACDB_MLEADERSTYLE_CLASS
 90
     4095
280
     0
281
     0
  0
CLASS
  1
SUN
  2
AcDbSun
  3
SCENEOE
 90
     1153
280
     0
281
     0
  0
CLASS
  1
ACDBPLACEHOLDER
  2
AcDbPlaceHolder
  3
ObjectDBX Classes
 90
        0
280
     0
281
     0
  0
CLASS
  1
LAYOUT
  2
AcDbLayout
  3
ObjectDBX Classes
 90
        0
280
     0
281
     0
  0
ENDSEC
  0
SECTION
  2
TABLES
  0
TABLE
  2
VPORT
  5
8
330
0
100
AcDbSymbolTable
 70
     1
  0
VPORT
  5
29
330
8
100
AcDbSymbolTableRecord
100
AcDbViewportTableRecord
  2
*Active
 70
     0
 10
0.0
 20
0.0
 11
1.0
 21
1.0
 12
10000.0
 22
5000.0
 13
0.0
 23
0.0
 14
10.0
 24
10.0
 15
10.0
 25
10.0
 16
0.0
 26
0.0
 36
1.0
 17
0.0
 27
0.0
 37
0.0
 40
10000.0
 41
2.0
 42
50.0
 43
0.0
 44
0.0
 50
0.0
 51
0.0
 71
     0
 72
  2000
 73
     1
 74
     3
 75
     0
 76
     0
 77
     0
 78
     0
281
     0
 65
     1
110
0.0
120
0.0
130
0.0
111
1.0
121
0.0
131
0.0
112
0.0
122
1.0
132
0.0
 79
     0
146
0.0
  0
ENDTAB
  0
TABLE
  2
LTYPE
  5
5
330
0
100
AcDbSymbolTable
 70
     6
  0
LTYPE
  5
14
330
5
100
AcDbSymbolTableRecord
100
AcDbLinetypeTableRecord
  2
ByBlock
 70
     0
  3

 72
    65
 73
     0
 40
0.0
  0
LTYPE
  5
15
330
5
100
AcDbSymbolTableRecord
100
AcDbLinetypeTableRecord
  2
ByLayer
 70
     0
  3

 72
    65
 73
     0
 40
0.0
  0
LTYPE
  5
16
330
5
100
AcDbSymbolTableRecord
100
AcDbLinetypeTableRecord
  2
Continuous
 70
     0
  3
Solid line
 72
    65
 73
     0
 40
0.0
  0
LTYPE
  5
6E
330
5
100
AcDbSymbolTableRecord
100
AcDbLinetypeTableRecord
  2
HIDDEN
 70
     0
  3
Hidden __ __ __ __ __ __ __ __ __ __ __ __ __ __
 72
    65
 73
     2
 40
1.905
 49
1.27
 74
     0
 49
-0.635
 74
     0
  0
LTYPE
  5
6F
330
5
100
AcDbSymbolTableRecord
100
AcDbLinetypeTableRecord
  2
PHANTOM
 70
     0
  3
Phantom ______  __  __  ______  __  __  ______
 72
    65
 73
     6
 40
12.7
 49
6.35
 74
     0
 49
-1.27
 74
     0
 49
1.27
 74
     0
 49
-1.27
 74
     0
 49
1.27
 74
     0
 49
-1.27
 74
     0
  0
LTYPE
  5
70
330
5
100
AcDbSymbolTableRecord
100
AcDbLinetypeTableRecord
  2
CENTER
 70
     0
  3
Center ____ _ ____ _ ____ _ ____ _ ____ _ ____
 72
    65
 73
     4
 40
10.16
 49
6.35
 74
     0
 49
-1.27
 74
     0
 49
1.27
 74
     0
 49
-1.27
 74
     0
  0
LTYPE
  5
71
330
5
100
AcDbSymbolTableRecord
100
AcDbLinetypeTableRecord
  2
CENTERX2
 70
     0
  3
Center (2x) ________  __  ________  __  _____
 72
    65
 73
     4
 40
20.32
 49
12.7
 74
     0
 49
-2.54
 74
     0
 49
2.54
 74
     0
 49
-2.54
 74
     0
  0
LTYPE
  5
72
330
5
100
AcDbSymbolTableRecord
100
AcDbLinetypeTableRecord
  2
DOT2
 70
     0
  3
Dot (.5x) ........................................
 72
    65
 73
     2
 40
0.635
 49
0.0
 74
     0
 49
-0.635
 74
     0
  0
ENDTAB
  0
TABLE
  2
LAYER
  5
2
330
0
100
AcDbSymbolTable
 70
    13
  0
LAYER
  5
10
330
2
100
AcDbSymbolTableRecord
100
AcDbLayerTableRecord
  2
0
 70
     0
 62
     7
  6
Continuous
370
    -3
390
F
  0
LAYER
  5
73
330
2
100
AcDbSymbolTableRecord
100
AcDbLayerTableRecord
  2
FORMAT
 70
     0
 62
     7
  6
Continuous
370
    -3
390
F
  0
LAYER
  5
74
330
2
100
AcDbSymbolTableRecord
100
AcDbLayerTableRecord
  2
OSA
 70
     0
 62
     7
  6
CENTER
370
    -3
390
F
  0
LAYER
  5
75
330
2
100
AcDbSymbolTableRecord
100
AcDbLayerTableRecord
  2
0_35
 70
     0
 62
     7
  6
Continuous
370
    35
390
F
  0
LAYER
  5
76
330
2
100
AcDbSymbolTableRecord
100
AcDbLayerTableRecord
  2
0_5
 70
     0
 62
     7
  6
Continuous
370
    50
390
F
  0
LAYER
  5
77
330
2
100
AcDbSymbolTableRecord
100
AcDbLayerTableRecord
  2
0_25
 70
     0
 62
     7
  6
Continuous
370
    25
390
F
  0
LAYER
  5
78
330
2
100
AcDbSymbolTableRecord
100
AcDbLayerTableRecord
  2
0_18
 70
     0
 62
     7
  6
Continuous
370
    -3
390
F
  0
LAYER
  5
79
330
2
100
AcDbSymbolTableRecord
100
AcDbLayerTableRecord
  2
SLD-0
 70
     0
 62
   179
  6
Continuous
370
    -3
390
F
  0
LAYER
  5
7A
330
2
100
AcDbSymbolTableRecord
100
AcDbLayerTableRecord
  2
KOTY
 70
     0
 62
     7
  6
Continuous
370
    -3
390
F
  0
LAYER
  5
7B
330
2
100
AcDbSymbolTableRecord
100
AcDbLayerTableRecord
  2
SILNA
 70
     0
 62
   179
  6
Continuous
370
    -3
390
F
  0
LAYER
  5
7C
330
2
100
AcDbSymbolTableRecord
100
AcDbLayerTableRecord
  2
0_18_1
 70
     0
 62
   179
  6
Continuous
370
    -3
390
F
  0
LAYER
  5
7D
330
2
100
AcDbSymbolTableRecord
100
AcDbLayerTableRecord
  2
0_35_1
 70
     0
 62
   179
  6
Continuous
370
    35
390
F
  0
LAYER
  5
7E
330
2
100
AcDbSymbolTableRecord
100
AcDbLayerTableRecord
  2
0_5_1
 70
     0
 62
   179
  6
Continuous
370
    50
390
F
  0
ENDTAB
  0
TABLE
  2
STYLE
  5
3
330
0
100
AcDbSymbolTable
 70
     1
  0
STYLE
  5
11
330
3
100
AcDbSymbolTableRecord
100
AcDbTextStyleTableRecord
  2
Standard
 70
     0
 40
0.0
 41
1.0
 50
0.0
 71
     0
 42
2.0
  3
txt
  4

  0
ENDTAB
  0
TABLE
  2
VIEW
  5
6
330
0
100
AcDbSymbolTable
 70
     0
  0
ENDTAB
  0
TABLE
  2
UCS
  5
7
330
0
100
AcDbSymbolTable
 70
     0
  0
ENDTAB
  0
TABLE
  2
APPID
  5
9
330
0
100
AcDbSymbolTable
 70
     1
  0
APPID
  5
12
330
9
100
AcDbSymbolTableRecord
100
AcDbRegAppTableRecord
  2
ACAD
 70
     0
  0
ENDTAB
  0
TABLE
  2
DIMSTYLE
  5
A
330
0
100
AcDbSymbolTable
 70
     1
100
AcDbDimStyleTable
  0
DIMSTYLE
105
27
330
A
100
AcDbSymbolTableRecord
100
AcDbDimStyleTableRecord
  2
ISO-25
 70
     0
 41
2.5
 42
0.625
 43
3.75
 44
1.25
 73
     0
 74
     0
 77
     1
 78
     8
140
2.5
141
2.5
143
0.0393700787
147
0.625
171
     3
172
     1
178
     0
271
     2
272
     2
274
     3
278
    44
283
     0
284
     8
340
11
  0
ENDTAB
  0
TABLE
  2
BLOCK_RECORD
  5
1
330
0
100
AcDbSymbolTable
 70
     1
  0
BLOCK_RECORD
  5
1F
330
1
100
AcDbSymbolTableRecord
100
AcDbBlockTableRecord
  2
*Model_Space
340
22
  0
BLOCK_RECORD
  5
1B
330
1
100
AcDbSymbolTableRecord
100
AcDbBlockTableRecord
  2
*Paper_Space
340
1E
  0
BLOCK_RECORD
  5
23
330
1
100
AcDbSymbolTableRecord
100
AcDbBlockTableRecord
  2
*Paper_Space0
340
26
  0
ENDTAB
  0
ENDSEC
  0
SECTION
  2
BLOCKS
  0
BLOCK
  5
20
330
1F
100
AcDbEntity
  8
0
100
AcDbBlockBegin
  2
*Model_Space
 70
     0
 10
0.0
 20
0.0
 30
0.0
  3
*Model_Space
  1

  0
ENDBLK
  5
21
330
1F
100
AcDbEntity
  8
0
100
AcDbBlockEnd
  0
BLOCK
  5
1C
330
1B
100
AcDbEntity
 67
     1
  8
0
100
AcDbBlockBegin
  2
*Paper_Space
 70
     0
 10
0.0
 20
0.0
 30
0.0
  3
*Paper_Space
  1

  0
ENDBLK
  5
1D
330
1B
100
AcDbEntity
 67
     1
  8
0
100
AcDbBlockEnd
  0
BLOCK
  5
24
330
23
100
AcDbEntity
  8
0
100
AcDbBlockBegin
  2
*Paper_Space0
 70
     0
 10
0.0
 20
0.0
 30
0.0
  3
*Paper_Space0
  1

  0
ENDBLK
  5
25
330
23
100
AcDbEntity
  8
0
100
AcDbBlockEnd
  0
ENDSEC
  0
SECTION
  2
ENTITIES
  0
LINE
  5
7F
330
1F
100
AcDbEntity
  8
0
  6
Continuous
 62
     7
370
    25
100
AcDbLine
 10
6226.7687553361
 20
5113.9245060425
 30
0.0
 11
6226.7687553361
 21
5113.9608418051
 31
0.0
  0
SPLINE
  5
80
330
1F
100
AcDbEntity
  8
0
  6
Continuous
 62
     7
370
    25
100
AcDbSpline
210
0.0
220
0.0
230
1.0
 70
     8
 71
     3
 72
     9
 73
     5
 74
     0
 42
0.00000001
 43
0.00000001
 40
0.0
 40
0.0
 40
0.0
 40
0.0
 40
0.1071456561094616
 40
1.0
 40
1.0
 40
1.0
 40
1.0
 10
6226.543826152216
 20
5113.788034733165
 30
0.0
 10
6226.55146183904
 20
5113.792473842102
 30
0.0
 10
6226.622726387708
 20
5113.833904443206
 30
0.0
 10
6226.694024364353
 20
5113.87526574643
 30
0.0
 10
6226.757683072511
 20
5113.912195365684
 30
0.0
  0
SPLINE
  5
81
330
1F
100
AcDbEntity
  8
0
  6
Continuous
 62
     7
370
    25
100
AcDbSpline
210
0.0
220
0.0
230
1.0
 70
     8
 71
     3
 72
     9
 73
     5
 74
     0
 42
0.00000001
 43
0.00000001
 40
0.0
 40
0.0
 40
0.0
 40
0.0
 40
0.4934360196876417
 40
1.0
 40
1.0
 40
1.0
 40
1.0
 10
6321.662858163389
 20
5113.984152138632
 30
0.0
 10
6321.600205813223
 20
5113.947601031801
 30
0.0
 10
6321.473234235011
 20
5113.873526368885
 30
0.0
 10
6321.345800363963
 20
5113.799813735545
 30
0.0
 10
6321.281246955017
 20
5113.762473570602
 30
0.0
  0
LINE
  5
82
330
1F
100
AcDbEntity
  8
0
  6
Continuous
 62
     7
370
    25
100
AcDbLine
 10
6321.2687553361
 20
5113.7495576741
 30
0.0
 11
6321.2687553361
 21
5113.7098894069
 31
0.0
  0
CIRCLE
  5
83
330
1F
100
AcDbEntity
  8
0
  6
Continuous
 62
     7
370
    25
100
AcDbCircle
 10
6326.5187553361
 20
5336.1994545927
 30
0.0
 40
0.75
  0
CIRCLE
  5
84
330
1F
100
AcDbEntity
  8
0
  6
Continuous
 62
     7
370
    25
100
AcDbCircle
 10
6326.5187553361
 20
5336.1994545927
 30
0.0
 40
4.5
  0
SPLINE
  5
85
330
1F
100
AcDbEntity
  8
0
  6
Continuous
 62
     7
370
    25
100
AcDbSpline
210
0.0
220
0.0
230
1.0
 70
     8
 71
     3
 72
    16
 73
    12
 74
     0
 42
0.00000001
 43
0.00000001
 40
0.0
 40
0.0
 40
0.0
 40
0.0
 40
0.1218585400097466
 40
0.2438549224446628
 40
0.3654874614654278
 40
0.4865512170680328
 40
0.607216829117597
 40
0.7278286333535067
 40
0.8487517277333497
 40
0.970214796334848
 40
1.0
 40
1.0
 40
1.0
 40
1.0
 10
6324.991631293889
 20
5334.623778921507
 30
0.0
 10
6324.924542971004
 20
5334.607082572511
 30
0.0
 10
6324.790290437098
 20
5334.573670988149
 30
0.0
 10
6324.582102158943
 20
5334.611866249579
 30
0.0
 10
6324.398894137758
 20
5334.711991978674
 30
0.0
 10
6324.25948218346
 20
5334.868108933671
 30
0.0
 10
6324.179737283194
 20
5335.060583026706
 30
0.0
 10
6324.167851139799
 20
5335.268528665005
 30
0.0
 10
6324.225351928804
 20
5335.468345907688
 30
0.0
 10
6324.314864668066
 20
5335.59685040882
 30
0.0
 10
6324.378154532266
 20
5335.653590442667
 30
0.0
 10
6324.390618155598
 20
5335.664764213044
 30
0.0
  0
LINE
  5
86
330
1F
100
AcDbEntity
  8
0
  6
Continuous
 62
     7
370
    25
100
AcDbLine
 10
6325.2153869649
 20
5334.7034305868
 30
0.0
 11
6324.9916312939
 21
5334.6237789215
 31
0.0
  0
SPLINE
  5
87
330
1F
100
AcDbEntity
  8
0
  6
Continuous
 62
     7
370
    25
100
AcDbSpline
210
0.0
220
0.0
230
1.0
 70
     8
 71
     3
 72
    13
 73
     9
 74
     0
 42
0.00000001
 43
0.00000001
 40
0.0
 40
0.0
 40
0.0
 40
0.0
 40
0.1945921045771
 40
0.3892164901963702
 40
0.5831042183270193
 40
0.7765337036201375
 40
0.9702718140458698
 40
1.0
 40
1.0
 40
1.0
 40
1.0
 10
6325.874844727939
 20
5334.322692469759
 30
0.0
 10
6325.859321156106
 20
5334.376838184941
 30
0.0
 10
6325.828271437223
 20
5334.485138597584
 30
0.0
 10
6325.716853148076
 20
5334.616680398258
 30
0.0
 10
6325.571998386504
 20
5334.705669071598
 30
0.0
 10
6325.405568071248
 20
5334.741195825474
 30
0.0
 10
6325.284128058549
 20
5334.726648893098
 30
0.0
 10
6325.223458025483
 20
5334.706156705153
 30
0.0
 10
6325.215386964861
 20
5334.703430586791
 30
0.0
  0
LINE
  5
88
330
1F
100
AcDbEntity
  8
0
  6
Continuous
 62
     7
370
    25
100
AcDbLine
 10
6325.9177421978
 20
5334.0890885418
 30
0.0
 11
6325.8748447279
 21
5334.3226924698
 31
0.0
  0
SPLINE
  5
89
330
1F
100
AcDbEntity
  8
0
  6
Continuous
 62
     7
370
    25
100
AcDbSpline
210
0.0
220
0.0
230
1.0
 70
     8
 71
     3
 72
    16
 73
    12
 74
     0
 42
0.00000001
 43
0.00000001
 40
0.0
 40
0.0
 40
0.0
 40
0.0
 40
0.1218637754100744
 40
0.2438601478163014
 40
0.3654926707113217
 40
0.4865564122629626
 40
0.6072220222705131
 40
0.7278338409759595
 40
0.8487569636477629
 40
0.9702200657688181
 40
1.0
 40
1.0
 40
1.0
 40
1.0
 10
6327.119768474418
 20
5334.089088541815
 30
0.0
 10
6327.100682669619
 20
5334.022637343322
 30
0.0
 10
6327.062490293225
 20
5333.889662642411
 30
0.0
 10
6326.925313683076
 20
5333.728463632197
 30
0.0
 10
6326.746996708127
 20
5333.619866314109
 30
0.0
 10
6326.542088883418
 20
5333.577193483076
 30
0.0
 10
6326.335529391327
 20
5333.604372411942
 30
0.0
 10
6326.149501488313
 20
5333.69805422373
 30
0.0
 10
6326.005207178457
 20
5333.847762077702
 30
0.0
 10
6325.938678880801
 20
5333.989532905155
 30
0.0
 10
6325.921186473663
 20
5334.072710729084
 30
0.0
 10
6325.917742197836
 20
5334.089088541815
 30
0.0
  0
LINE
  5
8A
330
1F
100
AcDbEntity
  8
0
  6
Continuous
 62
     7
370
    25
100
AcDbLine
 10
6327.1626659443
 20
5334.3226924698
 30
0.0
 11
6327.1197684744
 21
5334.0890885418
 31
0.0
  0
LINE
  5
8B
330
1F
100
AcDbEntity
  8
0
  6
Continuous
 62
     7
370
    25
100
AcDbLine
 10
6328.0458793784
 20
5334.6237789215
 30
0.0
 11
6327.8221237074
 21
5334.7034305868
 31
0.0
  0
SPLINE
  5
8C
330
1F
100
AcDbEntity
  8
0
  6
Continuous
 62
     7
370
    25
100
AcDbSpline
210
0.0
220
0.0
230
1.0
 70
     8
 71
     3
 72
    16
 73
    12
 74
     0
 42
0.00000001
 43
0.00000001
 40
0.0
 40
0.0
 40
0.0
 40
0.0
 40
0.1218023084595179
 40
0.2437987986391817
 40
0.3654315109113083
 40
0.4864954175119995
 40
0.6071610515961637
 40
0.7277727005266317
 40
0.8486954911235407
 40
0.970158199768721
 40
1.0
 40
1.0
 40
1.0
 40
1.0
 10
6328.646892516655
 20
5335.664764213044
 30
0.0
 10
6328.694875734721
 20
5335.61503768862
 30
0.0
 10
6328.790918667461
 20
5335.515505363919
 30
0.0
 10
6328.861955565342
 20
5335.316153992988
 30
0.0
 10
6328.866880768489
 20
5335.107428590702
 30
0.0
 10
6328.801416481908
 20
5334.908625356592
 30
0.0
 10
6328.674627094639
 20
5334.743307301957
 30
0.0
 10
6328.500501649886
 20
5334.629013529574
 30
0.0
 10
6328.298712578473
 20
5334.578871266376
 30
0.0
 10
6328.1426331929
 20
5334.592116092446
 30
0.0
 10
6328.061818472123
 20
5334.618562829475
 30
0.0
 10
6328.045879378365
 20
5334.623778921507
 30
0.0
  0
LINE
  5
8D
330
1F
100
AcDbEntity
  8
0
  6
Continuous
 62
     7
370
    25
100
AcDbLine
 10
6328.4660343156
 20
5335.8187164757
 30
0.0
 11
6328.6468925167
 21
5335.664764213
 31
0.0
  0
SPLINE
  5
8E
330
1F
100
AcDbEntity
  8
0
  6
Continuous
 62
     7
370
    25
100
AcDbSpline
210
0.0
220
0.0
230
1.0
 70
     8
 71
     3
 72
    13
 73
     9
 74
     0
 42
0.00000001
 43
0.00000001
 40
0.0
 40
0.0
 40
0.0
 40
0.0
 40
0.1945921045769553
 40
0.3892164901962598
 40
0.5831042183268476
 40
0.7765337036201658
 40
0.9702718140458332
 40
1.0
 40
1.0
 40
1.0
 40
1.0
 10
6328.466034315579
 20
5336.580192709769
 30
0.0
 10
6328.426904536643
 20
5336.539676044614
 30
0.0
 10
6328.348638487496
 20
5336.458635992958
 30
0.0
 10
6328.290429091025
 20
5336.296374023774
 30
0.0
 10
6328.28579002005
 20
5336.126431783724
 30
0.0
 10
6328.338238106307
 20
5335.964535525814
 30
0.0
 10
6328.411556125641
 20
5335.866638855969
 30
0.0
 10
6328.459637897514
 20
5335.824343160057
 30
0.0
 10
6328.466034315579
 20
5335.818716475705
 30
0.0
  0
LINE
  5
8F
330
1F
100
AcDbEntity
  8
0
  6
Continuous
 62
     7
370
    25
100
AcDbLine
 10
6328.6468925167
 20
5336.7341449724
 30
0.0
 11
6328.4660343156
 21
5336.5801927098
 31
0.0
  0
SPLINE
  5
90
330
1F
100
AcDbEntity
  8
0
  6
Continuous
 62
     7
370
    25
100
AcDbSpline
210
0.0
220
0.0
230
1.0
 70
     8
 71
     3
 72
    16
 73
    12
 74
     0
 42
0.00000001
 43
0.00000001
 40
0.0
 40
0.0
 40
0.0
 40
0.0
 40
0.1218585400097055
 40
0.2438549224446302
 40
0.3654874614654055
 40
0.4865512170680177
 40
0.6072168291173949
 40
0.7278286333533927
 40
0.8487517277332145
 40
0.9702147963347939
 40
1.0
 40
1.0
 40
1.0
 40
1.0
 10
6328.045879378365
 20
5337.775130263966
 30
0.0
 10
6328.11296770125
 20
5337.791826612963
 30
0.0
 10
6328.247220235156
 20
5337.825238197324
 30
0.0
 10
6328.455408513311
 20
5337.787042935894
 30
0.0
 10
6328.638616534496
 20
5337.6869172068
 30
0.0
 10
6328.778028488793
 20
5337.530800251802
 30
0.0
 10
6328.857773389059
 20
5337.338326158769
 30
0.0
 10
6328.869659532455
 20
5337.130380520469
 30
0.0
 10
6328.812158743449
 20
5336.930563277785
 30
0.0
 10
6328.722646004187
 20
5336.802058776654
 30
0.0
 10
6328.659356139988
 20
5336.745318742806
 30
0.0
 10
6328.646892516655
 20
5336.73414497243
 30
0.0
  0
LINE
  5
91
330
1F
100
AcDbEntity
  8
0
  6
Continuous
 62
     7
370
    25
100
AcDbLine
 10
6327.8221237074
 20
5337.6954785987
 30
0.0
 11
6328.0458793784
 21
5337.775130264
 31
0.0
  0
SPLINE
  5
92
330
1F
100
AcDbEntity
  8
0
  6
Continuous
 62
     7
370
    25
100
AcDbSpline
210
0.0
220
0.0
230
1.0
 70
     8
 71
     3
 72
    13
 73
     9
 74
     0
 42
0.00000001
 43
0.00000001
 40
0.0
 40
0.0
 40
0.0
 40
0.0
 40
0.1945921045770271
 40
0.3892164901962509
 40
0.5831042183268673
 40
0.7765337036200386
 40
0.9702718140457952
 40
1.0
 40
1.0
 40
1.0
 40
1.0
 10
6327.162665944315
 20
5338.076216715715
 30
0.0
 10
6327.178189516147
 20
5338.022071000532
 30
0.0
 10
6327.209239235031
 20
5337.91377058789
 30
0.0
 10
6327.320657524178
 20
5337.782228787216
 30
0.0
 10
6327.46551228575
 20
5337.693240113876
 30
0.0
 10
6327.631942601006
 20
5337.657713359999
 30
0.0
 10
6327.753382613705
 20
5337.672260292376
 30
0.0
 10
6327.814052646771
 20
5337.69275248032
 30
0.0
 10
6327.822123707392
 20
5337.695478598683
 30
0.0
  0
LINE
  5
93
330
1F
100
AcDbEntity
  8
0
  6
Continuous
 62
     7
370
    25
100
AcDbLine
 10
6327.1197684744
 20
5338.3098206437
 30
0.0
 11
6327.1626659443
 21
5338.0762167157
 31
0.0
  0
SPLINE
  5
94
330
1F
100
AcDbEntity
  8
0
  6
Continuous
 62
     7
370
    25
100
AcDbSpline
210
0.0
220
0.0
230
1.0
 70
     8
 71
     3
 72
    16
 73
    12
 74
     0
 42
0.00000001
 43
0.00000001
 40
0.0
 40
0.0
 40
0.0
 40
0.0
 40
0.1218637754099513
 40
0.2438601478162948
 40
0.3654926707113179
 40
0.4865564122629965
 40
0.6072220222705527
 40
0.7278338409760083
 40
0.8487569636478557
 40
0.970220065768844
 40
0.9999999999999999
 40
0.9999999999999999
 40
0.9999999999999999
 40
0.9999999999999999
 10
6325.917742197836
 20
5338.30982064366
 30
0.0
 10
6325.936828002634
 20
5338.376271842151
 30
0.0
 10
6325.975020379028
 20
5338.509246543063
 30
0.0
 10
6326.112196989178
 20
5338.670445553276
 30
0.0
 10
6326.290513964126
 20
5338.779042871366
 30
0.0
 10
6326.495421788835
 20
5338.821715702396
 30
0.0
 10
6326.701981280926
 20
5338.794536773531
 30
0.0
 10
6326.88800918394
 20
5338.700854961743
 30
0.0
 10
6327.032303493797
 20
5338.551147107771
 30
0.0
 10
6327.098831791453
 20
5338.409376280318
 30
0.0
 10
6327.116324198591
 20
5338.32619845639
 30
0.0
 10
6327.119768474418
 20
5338.30982064366
 30
0.0
  0
LINE
  5
95
330
1F
100
AcDbEntity
  8
0
  6
Continuous
 62
     7
370
    25
100
AcDbLine
 10
6325.8748447279
 20
5338.0762167157
 30
0.0
 11
6325.9177421978
 21
5338.3098206437
 31
0.0
  0
SPLINE
  5
96
330
1F
100
AcDbEntity
  8
0
  6
Continuous
 62
     7
370
    25
100
AcDbSpline
210
0.0
220
0.0
230
1.0
 70
     8
 71
     3
 72
    13
 73
     9
 74
     0
 42
0.00000001
 43
0.00000001
 40
0.0
 40
0.0
 40
0.0
 40
0.0
 40
0.1945921045769649
 40
0.3892164901964043
 40
0.5831042183268592
 40
0.7765337036200425
 40
0.9702718140457667
 40
1.0
 40
1.0
 40
1.0
 40
1.0
 10
6325.215386964861
 20
5337.695478598682
 30
0.0
 10
6325.270040315632
 20
5337.681849548655
 30
0.0
 10
6325.379356083662
 20
5337.654589187669
 30
0.0
 10
6325.548983769279
 20
5337.685309356179
 30
0.0
 10
6325.698477601826
 20
5337.766262922889
 30
0.0
 10
6325.812459830826
 20
5337.892632426922
 30
0.0
 10
6325.86058182419
 20
5338.005076029143
 30
0.0
 10
6325.873170085383
 20
5338.067863913
 30
0.0
 10
6325.874844727939
 20
5338.076216715715
 30
0.0
  0
LINE
  5
97
330
1F
100
AcDbEntity
  8
0
  6
Continuous
 62
     7
370
    25
100
AcDbLine
 10
6324.9916312939
 20
5337.775130264
 30
0.0
 11
6325.2153869649
 21
5337.6954785987
 31
0.0
  0
SPLINE
  5
98
330
1F
100
AcDbEntity
  8
0
  6
Continuous
 62
     7
370
    25
100
AcDbSpline
210
0.0
220
0.0
230
1.0
 70
     8
 71
     3
 72
    16
 73
    12
 74
     0
 42
0.00000001
 43
0.00000001
 40
0.0
 40
0.0
 40
0.0
 40
0.0
 40
0.1218023084594663
 40
0.2437987986392144
 40
0.3654315109112937
 40
0.4864954175120224
 40
0.6071610515960482
 40
0.727772700526611
 40
0.8486954911235384
 40
0.9701581997686872
 40
1.0
 40
1.0
 40
1.0
 40
1.0
 10
6324.390618155598
 20
5336.73414497243
 30
0.0
 10
6324.342634937533
 20
5336.783871496853
 30
0.0
 10
6324.246592004792
 20
5336.883403821555
 30
0.0
 10
6324.175555106911
 20
5337.082755192485
 30
0.0
 10
6324.170629903765
 20
5337.291480594772
 30
0.0
 10
6324.236094190345
 20
5337.490283828882
 30
0.0
 10
6324.362883577615
 20
5337.655601883516
 30
0.0
 10
6324.537009022367
 20
5337.769895655899
 30
0.0
 10
6324.73879809378
 20
5337.820037919098
 30
0.0
 10
6324.894877479354
 20
5337.806793093027
 30
0.0
 10
6324.975692200131
 20
5337.780346355999
 30
0.0
 10
6324.991631293889
 20
5337.775130263966
 30
0.0
  0
LINE
  5
99
330
1F
100
AcDbEntity
  8
0
  6
Continuous
 62
     7
370
    25
100
AcDbLine
 10
6324.5714763567
 20
5336.5801927098
 30
0.0
 11
6324.3906181556
 21
5336.7341449724
 31
0.0
  0
SPLINE
  5
9A
330
1F
100
AcDbEntity
  8
0
  6
Continuous
 62
     7
370
    25
100
AcDbSpline
210
0.0
220
0.0
230
1.0
 70
     8
 71
     3
 72
    13
 73
     9
 74
     0
 42
0.00000001
 43
0.00000001
 40
0.0
 40
0.0
 40
0.0
 40
0.0
 40
0.1945921045769902
 40
0.3892164901961346
 40
0.5831042183270414
 40
0.7765337036200353
 40
0.9702718140458453
 40
0.9999999999999999
 40
0.9999999999999999
 40
0.9999999999999999
 40
0.9999999999999999
 10
6324.571476356674
 20
5335.818716475705
 30
0.0
 10
6324.610606135612
 20
5335.859233140861
 30
0.0
 10
6324.688872184757
 20
5335.940273192516
 30
0.0
 10
6324.747081581228
 20
5336.1025351617
 30
0.0
 10
6324.751720652203
 20
5336.272477401751
 30
0.0
 10
6324.699272565947
 20
5336.43437365966
 30
0.0
 10
6324.625954546613
 20
5336.532270329505
 30
0.0
 10
6324.577872774739
 20
5336.574566025416
 30
0.0
 10
6324.571476356674
 20
5336.580192709769
 30
0.0
  0
LINE
  5
9B
330
1F
100
AcDbEntity
  8
0
  6
Continuous
 62
     7
370
    25
100
AcDbLine
 10
6324.3906181556
 20
5335.664764213
 30
0.0
 11
6324.5714763567
 21
5335.8187164757
 31
0.0
  0
SPLINE
  5
9C
330
1F
100
AcDbEntity
  8
0
  6
Continuous
 62
     7
370
    25
100
AcDbSpline
210
0.0
220
0.0
230
1.0
 70
     8
 71
     3
 72
    13
 73
     9
 74
     0
 42
0.00000001
 43
0.00000001
 40
0.0
 40
0.0
 40
0.0
 40
0.0
 40
0.1945921045769151
 40
0.3892164901963227
 40
0.5831042183269197
 40
0.7765337036200858
 40
0.9702718140459271
 40
0.9999999999999999
 40
0.9999999999999999
 40
0.9999999999999999
 40
0.9999999999999999
 10
6327.822123707392
 20
5334.703430586791
 30
0.0
 10
6327.767470356622
 20
5334.717059636818
 30
0.0
 10
6327.658154588592
 20
5334.744319997805
 30
0.0
 10
6327.488526902975
 20
5334.713599829294
 30
0.0
 10
6327.339033070427
 20
5334.632646262585
 30
0.0
 10
6327.225050841427
 20
5334.506276758551
 30
0.0
 10
6327.176928848064
 20
5334.393833156329
 30
0.0
 10
6327.16434058687
 20
5334.331045272474
 30
0.0
 10
6327.162665944315
 20
5334.322692469759
 30
0.0
  0
CIRCLE
  5
9D
330
1F
100
AcDbEntity
  8
0
  6
Continuous
 62
     7
370
    25
100
AcDbCircle
 10
6221.5187553361
 20
5336.1994545927
 30
0.0
 40
0.75
  0
CIRCLE
  5
9E
330
1F
100
AcDbEntity
  8
0
  6
Continuous
 62
     7
370
    25
100
AcDbCircle
 10
6221.5187553361
 20
5336.1994545927
 30
0.0
 40
4.500000000000909
  0
SPLINE
  5
9F
330
1F
100
AcDbEntity
  8
0
  6
Continuous
 62
     7
370
    25
100
AcDbSpline
210
0.0
220
0.0
230
1.0
 70
     8
 71
     3
 72
    16
 73
    12
 74
     0
 42
0.00000001
 43
0.00000001
 40
0.0
 40
0.0
 40
0.0
 40
0.0
 40
0.121858540009747
 40
0.2438549224446637
 40
0.365487461465429
 40
0.4865512170680345
 40
0.6072168291175976
 40
0.7278286333535077
 40
0.84875172773335
 40
0.970214796334851
 40
1.0
 40
1.0
 40
1.0
 40
1.0
 10
6219.991631293836
 20
5334.623778921507
 30
0.0
 10
6219.92454297095
 20
5334.607082572511
 30
0.0
 10
6219.790290437045
 20
5334.573670988149
 30
0.0
 10
6219.582102158889
 20
5334.611866249579
 30
0.0
 10
6219.398894137706
 20
5334.711991978674
 30
0.0
 10
6219.259482183407
 20
5334.868108933671
 30
0.0
 10
6219.179737283142
 20
5335.060583026706
 30
0.0
 10
6219.167851139746
 20
5335.268528665005
 30
0.0
 10
6219.225351928751
 20
5335.468345907688
 30
0.0
 10
6219.314864668012
 20
5335.59685040882
 30
0.0
 10
6219.378154532213
 20
5335.653590442667
 30
0.0
 10
6219.390618155545
 20
5335.664764213044
 30
0.0
  0
LINE
  5
A0
330
1F
100
AcDbEntity
  8
0
  6
Continuous
 62
     7
370
    25
100
AcDbLine
 10
6220.2153869648
 20
5334.7034305868
 30
0.0
 11
6219.9916312938
 21
5334.6237789215
 31
0.0
  0
SPLINE
  5
A1
330
1F
100
AcDbEntity
  8
0
  6
Continuous
 62
     7
370
    25
100
AcDbSpline
210
0.0
220
0.0
230
1.0
 70
     8
 71
     3
 72
    13
 73
     9
 74
     0
 42
0.00000001
 43
0.00000001
 40
0.0
 40
0.0
 40
0.0
 40
0.0
 40
0.1945921045770989
 40
0.3892164901963731
 40
0.5831042183270142
 40
0.7765337036201313
 40
0.9702718140458623
 40
1.0
 40
1.0
 40
1.0
 40
1.0
 10
6220.874844727886
 20
5334.322692469759
 30
0.0
 10
6220.859321156053
 20
5334.376838184941
 30
0.0
 10
6220.82827143717
 20
5334.485138597584
 30
0.0
 10
6220.716853148022
 20
5334.616680398258
 30
0.0
 10
6220.57199838645
 20
5334.705669071598
 30
0.0
 10
6220.405568071195
 20
5334.741195825474
 30
0.0
 10
6220.284128058495
 20
5334.726648893098
 30
0.0
 10
6220.223458025429
 20
5334.706156705153
 30
0.0
 10
6220.215386964808
 20
5334.703430586791
 30
0.0
  0
LINE
  5
A2
330
1F
100
AcDbEntity
  8
0
  6
Continuous
 62
     7
370
    25
100
AcDbLine
 10
6220.9177421978
 20
5334.0890885418
 30
0.0
 11
6220.8748447279
 21
5334.3226924698
 31
0.0
  0
SPLINE
  5
A3
330
1F
100
AcDbEntity
  8
0
  6
Continuous
 62
     7
370
    25
100
AcDbSpline
210
0.0
220
0.0
230
1.0
 70
     8
 71
     3
 72
    16
 73
    12
 74
     0
 42
0.00000001
 43
0.00000001
 40
0.0
 40
0.0
 40
0.0
 40
0.0
 40
0.1218637754100732
 40
0.2438601478163029
 40
0.36549267071132
 40
0.4865564122629611
 40
0.6072220222705117
 40
0.727833840975962
 40
0.8487569636477627
 40
0.9702200657688181
 40
1.0
 40
1.0
 40
1.0
 40
1.0
 10
6222.119768474365
 20
5334.089088541815
 30
0.0
 10
6222.100682669567
 20
5334.022637343322
 30
0.0
 10
6222.062490293172
 20
5333.88966264241
 30
0.0
 10
6221.925313683022
 20
5333.728463632197
 30
0.0
 10
6221.746996708074
 20
5333.619866314109
 30
0.0
 10
6221.542088883365
 20
5333.577193483076
 30
0.0
 10
6221.335529391275
 20
5333.604372411942
 30
0.0
 10
6221.14950148826
 20
5333.69805422373
 30
0.0
 10
6221.005207178403
 20
5333.847762077702
 30
0.0
 10
6220.938678880748
 20
5333.989532905155
 30
0.0
 10
6220.92118647361
 20
5334.072710729084
 30
0.0
 10
6220.917742197782
 20
5334.089088541815
 30
0.0
  0
LINE
  5
A4
330
1F
100
AcDbEntity
  8
0
  6
Continuous
 62
     7
370
    25
100
AcDbLine
 10
6222.1626659443
 20
5334.3226924698
 30
0.0
 11
6222.1197684744
 21
5334.0890885418
 31
0.0
  0
SPLINE
  5
A5
330
1F
100
AcDbEntity
  8
0
  6
Continuous
 62
     7
370
    25
100
AcDbSpline
210
0.0
220
0.0
230
1.0
 70
     8
 71
     3
 72
    13
 73
     9
 74
     0
 42
0.00000001
 43
0.00000001
 40
0.0
 40
0.0
 40
0.0
 40
0.0
 40
0.1945921045769126
 40
0.3892164901963276
 40
0.583104218326917
 40
0.7765337036200879
 40
0.9702718140459256
 40
1.0
 40
1.0
 40
1.0
 40
1.0
 10
6222.822123707339
 20
5334.703430586791
 30
0.0
 10
6222.767470356569
 20
5334.717059636818
 30
0.0
 10
6222.658154588538
 20
5334.744319997805
 30
0.0
 10
6222.488526902921
 20
5334.713599829294
 30
0.0
 10
6222.339033070374
 20
5334.632646262585
 30
0.0
 10
6222.225050841374
 20
5334.506276758551
 30
0.0
 10
6222.17692884801
 20
5334.393833156329
 30
0.0
 10
6222.164340586817
 20
5334.331045272474
 30
0.0
 10
6222.162665944261
 20
5334.322692469759
 30
0.0
  0
LINE
  5
A6
330
1F
100
AcDbEntity
  8
0
  6
Continuous
 62
     7
370
    25
100
AcDbLine
 10
6223.0458793783
 20
5334.6237789215
 30
0.0
 11
6222.8221237073
 21
5334.7034305868
 31
0.0
  0
SPLINE
  5
A7
330
1F
100
AcDbEntity
  8
0
  6
Continuous
 62
     7
370
    25
100
AcDbSpline
210
0.0
220
0.0
230
1.0
 70
     8
 71
     3
 72
    16
 73
    12
 74
     0
 42
0.00000001
 43
0.00000001
 40
0.0
 40
0.0
 40
0.0
 40
0.0
 40
0.121802308459518
 40
0.2437987986391833
 40
0.3654315109113099
 40
0.4864954175120013
 40
0.6071610515961631
 40
0.727772700526631
 40
0.8486954911235401
 40
0.9701581997687246
 40
0.9999999999999999
 40
0.9999999999999999
 40
0.9999999999999999
 40
0.9999999999999999
 10
6223.646892516603
 20
5335.664764213044
 30
0.0
 10
6223.694875734667
 20
5335.61503768862
 30
0.0
 10
6223.790918667409
 20
5335.515505363919
 30
0.0
 10
6223.861955565289
 20
5335.316153992988
 30
0.0
 10
6223.866880768435
 20
5335.107428590702
 30
0.0
 10
6223.801416481855
 20
5334.908625356592
 30
0.0
 10
6223.674627094585
 20
5334.743307301957
 30
0.0
 10
6223.500501649833
 20
5334.629013529574
 30
0.0
 10
6223.29871257842
 20
5334.578871266376
 30
0.0
 10
6223.142633192846
 20
5334.592116092446
 30
0.0
 10
6223.06181847207
 20
5334.618562829475
 30
0.0
 10
6223.045879378312
 20
5334.623778921507
 30
0.0
  0
LINE
  5
A8
330
1F
100
AcDbEntity
  8
0
  6
Continuous
 62
     7
370
    25
100
AcDbLine
 10
6223.4660343155
 20
5335.8187164757
 30
0.0
 11
6223.6468925166
 21
5335.664764213
 31
0.0
  0
SPLINE
  5
A9
330
1F
100
AcDbEntity
  8
0
  6
Continuous
 62
     7
370
    25
100
AcDbSpline
210
0.0
220
0.0
230
1.0
 70
     8
 71
     3
 72
    13
 73
     9
 74
     0
 42
0.00000001
 43
0.00000001
 40
0.0
 40
0.0
 40
0.0
 40
0.0
 40
0.1945921045769564
 40
0.3892164901962621
 40
0.583104218326851
 40
0.7765337036201705
 40
0.9702718140458388
 40
0.9999999999999999
 40
0.9999999999999999
 40
0.9999999999999999
 40
0.9999999999999999
 10
6223.466034315526
 20
5336.580192709769
 30
0.0
 10
6223.426904536589
 20
5336.539676044614
 30
0.0
 10
6223.348638487443
 20
5336.458635992958
 30
0.0
 10
6223.290429090972
 20
5336.296374023773
 30
0.0
 10
6223.285790019997
 20
5336.126431783724
 30
0.0
 10
6223.338238106253
 20
5335.964535525814
 30
0.0
 10
6223.411556125588
 20
5335.866638855969
 30
0.0
 10
6223.459637897461
 20
5335.824343160057
 30
0.0
 10
6223.466034315526
 20
5335.818716475705
 30
0.0
  0
LINE
  5
AA
330
1F
100
AcDbEntity
  8
0
  6
Continuous
 62
     7
370
    25
100
AcDbLine
 10
6223.6468925166
 20
5336.7341449724
 30
0.0
 11
6223.4660343155
 21
5336.5801927098
 31
0.0
  0
SPLINE
  5
AB
330
1F
100
AcDbEntity
  8
0
  6
Continuous
 62
     7
370
    25
100
AcDbSpline
210
0.0
220
0.0
230
1.0
 70
     8
 71
     3
 72
    16
 73
    12
 74
     0
 42
0.00000001
 43
0.00000001
 40
0.0
 40
0.0
 40
0.0
 40
0.0
 40
0.1218585400097057
 40
0.2438549224446267
 40
0.3654874614654059
 40
0.4865512170680185
 40
0.6072168291173945
 40
0.7278286333533925
 40
0.8487517277332147
 40
0.9702147963347968
 40
1.0
 40
1.0
 40
1.0
 40
1.0
 10
6223.045879378312
 20
5337.775130263966
 30
0.0
 10
6223.112967701197
 20
5337.791826612963
 30
0.0
 10
6223.247220235103
 20
5337.825238197324
 30
0.0
 10
6223.455408513258
 20
5337.787042935894
 30
0.0
 10
6223.638616534442
 20
5337.6869172068
 30
0.0
 10
6223.77802848874
 20
5337.530800251802
 30
0.0
 10
6223.857773389006
 20
5337.338326158769
 30
0.0
 10
6223.869659532401
 20
5337.130380520469
 30
0.0
 10
6223.812158743396
 20
5336.930563277785
 30
0.0
 10
6223.722646004135
 20
5336.802058776654
 30
0.0
 10
6223.659356139934
 20
5336.745318742806
 30
0.0
 10
6223.646892516603
 20
5336.73414497243
 30
0.0
  0
LINE
  5
AC
330
1F
100
AcDbEntity
  8
0
  6
Continuous
 62
     7
370
    25
100
AcDbLine
 10
6222.8221237073
 20
5337.6954785987
 30
0.0
 11
6223.0458793783
 21
5337.775130264
 31
0.0
  0
SPLINE
  5
AD
330
1F
100
AcDbEntity
  8
0
  6
Continuous
 62
     7
370
    25
100
AcDbSpline
210
0.0
220
0.0
230
1.0
 70
     8
 71
     3
 72
    13
 73
     9
 74
     0
 42
0.00000001
 43
0.00000001
 40
0.0
 40
0.0
 40
0.0
 40
0.0
 40
0.1945921045770273
 40
0.3892164901962512
 40
0.5831042183268609
 40
0.7765337036200323
 40
0.9702718140457951
 40
0.9999999999999999
 40
0.9999999999999999
 40
0.9999999999999999
 40
0.9999999999999999
 10
6222.162665944261
 20
5338.076216715715
 30
0.0
 10
6222.178189516094
 20
5338.022071000532
 30
0.0
 10
6222.209239234978
 20
5337.91377058789
 30
0.0
 10
6222.320657524125
 20
5337.782228787216
 30
0.0
 10
6222.465512285697
 20
5337.693240113876
 30
0.0
 10
6222.631942600952
 20
5337.657713359999
 30
0.0
 10
6222.753382613651
 20
5337.672260292376
 30
0.0
 10
6222.814052646718
 20
5337.69275248032
 30
0.0
 10
6222.822123707339
 20
5337.695478598683
 30
0.0
  0
LINE
  5
AE
330
1F
100
AcDbEntity
  8
0
  6
Continuous
 62
     7
370
    25
100
AcDbLine
 10
6222.1197684744
 20
5338.3098206437
 30
0.0
 11
6222.1626659443
 21
5338.0762167157
 31
0.0
  0
SPLINE
  5
AF
330
1F
100
AcDbEntity
  8
0
  6
Continuous
 62
     7
370
    25
100
AcDbSpline
210
0.0
220
0.0
230
1.0
 70
     8
 71
     3
 72
    16
 73
    12
 74
     0
 42
0.00000001
 43
0.00000001
 40
0.0
 40
0.0
 40
0.0
 40
0.0
 40
0.1218637754099511
 40
0.2438601478162943
 40
0.3654926707113172
 40
0.4865564122629956
 40
0.6072220222705557
 40
0.727833840976011
 40
0.8487569636478552
 40
0.9702200657688451
 40
1.0
 40
1.0
 40
1.0
 40
1.0
 10
6220.917742197782
 20
5338.30982064366
 30
0.0
 10
6220.936828002581
 20
5338.376271842151
 30
0.0
 10
6220.975020378975
 20
5338.509246543063
 30
0.0
 10
6221.112196989125
 20
5338.670445553276
 30
0.0
 10
6221.290513964073
 20
5338.779042871366
 30
0.0
 10
6221.495421788783
 20
5338.821715702396
 30
0.0
 10
6221.701981280873
 20
5338.794536773531
 30
0.0
 10
6221.888009183887
 20
5338.700854961743
 30
0.0
 10
6222.032303493744
 20
5338.551147107771
 30
0.0
 10
6222.0988317914
 20
5338.409376280318
 30
0.0
 10
6222.116324198538
 20
5338.32619845639
 30
0.0
 10
6222.119768474365
 20
5338.30982064366
 30
0.0
  0
LINE
  5
B0
330
1F
100
AcDbEntity
  8
0
  6
Continuous
 62
     7
370
    25
100
AcDbLine
 10
6220.8748447279
 20
5338.0762167157
 30
0.0
 11
6220.9177421978
 21
5338.3098206437
 31
0.0
  0
SPLINE
  5
B1
330
1F
100
AcDbEntity
  8
0
  6
Continuous
 62
     7
370
    25
100
AcDbSpline
210
0.0
220
0.0
230
1.0
 70
     8
 71
     3
 72
    13
 73
     9
 74
     0
 42
0.00000001
 43
0.00000001
 40
0.0
 40
0.0
 40
0.0
 40
0.0
 40
0.1945921045769725
 40
0.3892164901964037
 40
0.5831042183268583
 40
0.7765337036200415
 40
0.9702718140457685
 40
1.0
 40
1.0
 40
1.0
 40
1.0
 10
6220.215386964808
 20
5337.695478598682
 30
0.0
 10
6220.270040315579
 20
5337.681849548655
 30
0.0
 10
6220.379356083609
 20
5337.654589187669
 30
0.0
 10
6220.548983769226
 20
5337.685309356179
 30
0.0
 10
6220.698477601773
 20
5337.766262922889
 30
0.0
 10
6220.812459830772
 20
5337.892632426922
 30
0.0
 10
6220.860581824137
 20
5338.005076029143
 30
0.0
 10
6220.87317008533
 20
5338.067863913
 30
0.0
 10
6220.874844727886
 20
5338.076216715715
 30
0.0
  0
LINE
  5
B2
330
1F
100
AcDbEntity
  8
0
  6
Continuous
 62
     7
370
    25
100
AcDbLine
 10
6219.9916312938
 20
5337.775130264
 30
0.0
 11
6220.2153869648
 21
5337.6954785987
 31
0.0
  0
SPLINE
  5
B3
330
1F
100
AcDbEntity
  8
0
  6
Continuous
 62
     7
370
    25
100
AcDbSpline
210
0.0
220
0.0
230
1.0
 70
     8
 71
     3
 72
    16
 73
    12
 74
     0
 42
0.00000001
 43
0.00000001
 40
0.0
 40
0.0
 40
0.0
 40
0.0
 40
0.1218023084594664
 40
0.2437987986392147
 40
0.3654315109112941
 40
0.4864954175120242
 40
0.6071610515960476
 40
0.7277727005266106
 40
0.8486954911235381
 40
0.9701581997686911
 40
1.0
 40
1.0
 40
1.0
 40
1.0
 10
6219.390618155545
 20
5336.73414497243
 30
0.0
 10
6219.342634937479
 20
5336.783871496853
 30
0.0
 10
6219.246592004738
 20
5336.883403821555
 30
0.0
 10
6219.175555106858
 20
5337.082755192485
 30
0.0
 10
6219.170629903711
 20
5337.291480594772
 30
0.0
 10
6219.236094190293
 20
5337.490283828882
 30
0.0
 10
6219.362883577562
 20
5337.655601883516
 30
0.0
 10
6219.537009022314
 20
5337.769895655899
 30
0.0
 10
6219.738798093727
 20
5337.820037919098
 30
0.0
 10
6219.894877479302
 20
5337.806793093027
 30
0.0
 10
6219.975692200077
 20
5337.780346355999
 30
0.0
 10
6219.991631293836
 20
5337.775130263966
 30
0.0
  0
LINE
  5
B4
330
1F
100
AcDbEntity
  8
0
  6
Continuous
 62
     7
370
    25
100
AcDbLine
 10
6219.5714763566
 20
5336.5801927098
 30
0.0
 11
6219.3906181555
 21
5336.7341449724
 31
0.0
  0
SPLINE
  5
B5
330
1F
100
AcDbEntity
  8
0
  6
Continuous
 62
     7
370
    25
100
AcDbSpline
210
0.0
220
0.0
230
1.0
 70
     8
 71
     3
 72
    13
 73
     9
 74
     0
 42
0.00000001
 43
0.00000001
 40
0.0
 40
0.0
 40
0.0
 40
0.0
 40
0.1945921045769955
 40
0.3892164901961372
 40
0.5831042183270445
 40
0.776533703620041
 40
0.9702718140458512
 40
1.0
 40
1.0
 40
1.0
 40
1.0
 10
6219.571476356621
 20
5335.818716475705
 30
0.0
 10
6219.610606135558
 20
5335.859233140861
 30
0.0
 10
6219.688872184704
 20
5335.940273192516
 30
0.0
 10
6219.747081581176
 20
5336.1025351617
 30
0.0
 10
6219.751720652151
 20
5336.272477401751
 30
0.0
 10
6219.699272565894
 20
5336.43437365966
 30
0.0
 10
6219.625954546559
 20
5336.532270329505
 30
0.0
 10
6219.577872774687
 20
5336.574566025416
 30
0.0
 10
6219.571476356621
 20
5336.580192709769
 30
0.0
  0
LINE
  5
B6
330
1F
100
AcDbEntity
  8
0
  6
Continuous
 62
     7
370
    25
100
AcDbLine
 10
6219.3906181555
 20
5335.664764213
 30
0.0
 11
6219.5714763566
 21
5335.8187164757
 31
0.0
  0
CIRCLE
  5
B7
330
1F
100
AcDbEntity
  8
0
  6
Continuous
 62
     7
370
    25
100
AcDbCircle
 10
6221.5187553361
 20
5091.1994545927
 30
0.0
 40
0.75
  0
CIRCLE
  5
B8
330
1F
100
AcDbEntity
  8
0
  6
Continuous
 62
     7
370
    25
100
AcDbCircle
 10
6221.5187553361
 20
5091.1994545927
 30
0.0
 40
4.500000000000909
  0
SPLINE
  5
B9
330
1F
100
AcDbEntity
  8
0
  6
Continuous
 62
     7
370
    25
100
AcDbSpline
210
0.0
220
0.0
230
1.0
 70
     8
 71
     3
 72
    16
 73
    12
 74
     0
 42
0.00000001
 43
0.00000001
 40
0.0
 40
0.0
 40
0.0
 40
0.0
 40
0.121858540009747
 40
0.2438549224446637
 40
0.365487461465429
 40
0.4865512170680345
 40
0.6072168291175976
 40
0.7278286333535077
 40
0.84875172773335
 40
0.970214796334851
 40
1.0
 40
1.0
 40
1.0
 40
1.0
 10
6219.991631293836
 20
5089.623778921472
 30
0.0
 10
6219.92454297095
 20
5089.607082572476
 30
0.0
 10
6219.790290437045
 20
5089.573670988114
 30
0.0
 10
6219.582102158889
 20
5089.611866249545
 30
0.0
 10
6219.398894137706
 20
5089.711991978638
 30
0.0
 10
6219.259482183407
 20
5089.868108933635
 30
0.0
 10
6219.179737283142
 20
5090.06058302667
 30
0.0
 10
6219.167851139746
 20
5090.268528664969
 30
0.0
 10
6219.225351928751
 20
5090.468345907653
 30
0.0
 10
6219.314864668012
 20
5090.596850408784
 30
0.0
 10
6219.378154532213
 20
5090.653590442632
 30
0.0
 10
6219.390618155545
 20
5090.664764213007
 30
0.0
  0
LINE
  5
BA
330
1F
100
AcDbEntity
  8
0
  6
Continuous
 62
     7
370
    25
100
AcDbLine
 10
6220.2153869648
 20
5089.7034305868
 30
0.0
 11
6219.9916312938
 21
5089.6237789215
 31
0.0
  0
SPLINE
  5
BB
330
1F
100
AcDbEntity
  8
0
  6
Continuous
 62
     7
370
    25
100
AcDbSpline
210
0.0
220
0.0
230
1.0
 70
     8
 71
     3
 72
    13
 73
     9
 74
     0
 42
0.00000001
 43
0.00000001
 40
0.0
 40
0.0
 40
0.0
 40
0.0
 40
0.1945921045770989
 40
0.3892164901963731
 40
0.5831042183270142
 40
0.7765337036201313
 40
0.9702718140458623
 40
1.0
 40
1.0
 40
1.0
 40
1.0
 10
6220.874844727886
 20
5089.322692469724
 30
0.0
 10
6220.859321156053
 20
5089.376838184906
 30
0.0
 10
6220.82827143717
 20
5089.485138597547
 30
0.0
 10
6220.716853148022
 20
5089.616680398223
 30
0.0
 10
6220.57199838645
 20
5089.705669071563
 30
0.0
 10
6220.405568071195
 20
5089.74119582544
 30
0.0
 10
6220.284128058495
 20
5089.726648893063
 30
0.0
 10
6220.223458025429
 20
5089.706156705118
 30
0.0
 10
6220.215386964808
 20
5089.703430586756
 30
0.0
  0
LINE
  5
BC
330
1F
100
AcDbEntity
  8
0
  6
Continuous
 62
     7
370
    25
100
AcDbLine
 10
6220.9177421978
 20
5089.0890885418
 30
0.0
 11
6220.8748447279
 21
5089.3226924697
 31
0.0
  0
SPLINE
  5
BD
330
1F
100
AcDbEntity
  8
0
  6
Continuous
 62
     7
370
    25
100
AcDbSpline
210
0.0
220
0.0
230
1.0
 70
     8
 71
     3
 72
    16
 73
    12
 74
     0
 42
0.00000001
 43
0.00000001
 40
0.0
 40
0.0
 40
0.0
 40
0.0
 40
0.1218637754100732
 40
0.2438601478163029
 40
0.36549267071132
 40
0.4865564122629611
 40
0.6072220222705117
 40
0.727833840975962
 40
0.8487569636477627
 40
0.9702200657688181
 40
1.0
 40
1.0
 40
1.0
 40
1.0
 10
6222.119768474365
 20
5089.089088541778
 30
0.0
 10
6222.100682669567
 20
5089.022637343286
 30
0.0
 10
6222.062490293172
 20
5088.889662642376
 30
0.0
 10
6221.925313683022
 20
5088.728463632162
 30
0.0
 10
6221.746996708074
 20
5088.619866314072
 30
0.0
 10
6221.542088883365
 20
5088.577193483042
 30
0.0
 10
6221.335529391275
 20
5088.604372411907
 30
0.0
 10
6221.14950148826
 20
5088.698054223695
 30
0.0
 10
6221.005207178403
 20
5088.847762077668
 30
0.0
 10
6220.938678880748
 20
5088.989532905121
 30
0.0
 10
6220.92118647361
 20
5089.072710729049
 30
0.0
 10
6220.917742197782
 20
5089.089088541778
 30
0.0
  0
LINE
  5
BE
330
1F
100
AcDbEntity
  8
0
  6
Continuous
 62
     7
370
    25
100
AcDbLine
 10
6222.1626659443
 20
5089.3226924697
 30
0.0
 11
6222.1197684744
 21
5089.0890885418
 31
0.0
  0
LINE
  5
BF
330
1F
100
AcDbEntity
  8
0
  6
Continuous
 62
     7
370
    25
100
AcDbLine
 10
6223.0458793783
 20
5089.6237789215
 30
0.0
 11
6222.8221237073
 21
5089.7034305868
 31
0.0
  0
SPLINE
  5
C0
330
1F
100
AcDbEntity
  8
0
  6
Continuous
 62
     7
370
    25
100
AcDbSpline
210
0.0
220
0.0
230
1.0
 70
     8
 71
     3
 72
    16
 73
    12
 74
     0
 42
0.00000001
 43
0.00000001
 40
0.0
 40
0.0
 40
0.0
 40
0.0
 40
0.121802308459518
 40
0.2437987986391833
 40
0.3654315109113099
 40
0.4864954175120013
 40
0.6071610515961631
 40
0.727772700526631
 40
0.8486954911235401
 40
0.9701581997687246
 40
0.9999999999999999
 40
0.9999999999999999
 40
0.9999999999999999
 40
0.9999999999999999
 10
6223.646892516603
 20
5090.664764213008
 30
0.0
 10
6223.694875734667
 20
5090.615037688585
 30
0.0
 10
6223.790918667409
 20
5090.515505363884
 30
0.0
 10
6223.861955565289
 20
5090.316153992953
 30
0.0
 10
6223.866880768435
 20
5090.107428590666
 30
0.0
 10
6223.801416481855
 20
5089.908625356557
 30
0.0
 10
6223.674627094585
 20
5089.743307301922
 30
0.0
 10
6223.500501649833
 20
5089.629013529539
 30
0.0
 10
6223.29871257842
 20
5089.578871266341
 30
0.0
 10
6223.142633192846
 20
5089.592116092412
 30
0.0
 10
6223.06181847207
 20
5089.61856282944
 30
0.0
 10
6223.045879378312
 20
5089.623778921472
 30
0.0
  0
LINE
  5
C1
330
1F
100
AcDbEntity
  8
0
  6
Continuous
 62
     7
370
    25
100
AcDbLine
 10
6223.4660343155
 20
5090.8187164757
 30
0.0
 11
6223.6468925166
 21
5090.664764213
 31
0.0
  0
SPLINE
  5
C2
330
1F
100
AcDbEntity
  8
0
  6
Continuous
 62
     7
370
    25
100
AcDbSpline
210
0.0
220
0.0
230
1.0
 70
     8
 71
     3
 72
    13
 73
     9
 74
     0
 42
0.00000001
 43
0.00000001
 40
0.0
 40
0.0
 40
0.0
 40
0.0
 40
0.1945921045769564
 40
0.3892164901962621
 40
0.583104218326851
 40
0.7765337036201705
 40
0.9702718140458388
 40
0.9999999999999999
 40
0.9999999999999999
 40
0.9999999999999999
 40
0.9999999999999999
 10
6223.466034315526
 20
5091.580192709734
 30
0.0
 10
6223.426904536589
 20
5091.539676044577
 30
0.0
 10
6223.348638487443
 20
5091.458635992924
 30
0.0
 10
6223.290429090972
 20
5091.296374023738
 30
0.0
 10
6223.285790019997
 20
5091.126431783688
 30
0.0
 10
6223.338238106253
 20
5090.964535525778
 30
0.0
 10
6223.411556125588
 20
5090.866638855933
 30
0.0
 10
6223.459637897461
 20
5090.824343160022
 30
0.0
 10
6223.466034315526
 20
5090.818716475669
 30
0.0
  0
LINE
  5
C3
330
1F
100
AcDbEntity
  8
0
  6
Continuous
 62
     7
370
    25
100
AcDbLine
 10
6223.6468925166
 20
5091.7341449724
 30
0.0
 11
6223.4660343155
 21
5091.5801927097
 31
0.0
  0
SPLINE
  5
C4
330
1F
100
AcDbEntity
  8
0
  6
Continuous
 62
     7
370
    25
100
AcDbSpline
210
0.0
220
0.0
230
1.0
 70
     8
 71
     3
 72
    16
 73
    12
 74
     0
 42
0.00000001
 43
0.00000001
 40
0.0
 40
0.0
 40
0.0
 40
0.0
 40
0.1218585400097057
 40
0.2438549224446267
 40
0.3654874614654059
 40
0.4865512170680185
 40
0.6072168291173945
 40
0.7278286333533925
 40
0.8487517277332147
 40
0.9702147963347968
 40
1.0
 40
1.0
 40
1.0
 40
1.0
 10
6223.045879378312
 20
5092.775130263931
 30
0.0
 10
6223.112967701197
 20
5092.791826612927
 30
0.0
 10
6223.247220235103
 20
5092.825238197289
 30
0.0
 10
6223.455408513258
 20
5092.787042935859
 30
0.0
 10
6223.638616534442
 20
5092.686917206765
 30
0.0
 10
6223.77802848874
 20
5092.530800251767
 30
0.0
 10
6223.857773389006
 20
5092.338326158732
 30
0.0
 10
6223.869659532401
 20
5092.130380520434
 30
0.0
 10
6223.812158743396
 20
5091.93056327775
 30
0.0
 10
6223.722646004135
 20
5091.802058776619
 30
0.0
 10
6223.659356139934
 20
5091.745318742771
 30
0.0
 10
6223.646892516603
 20
5091.734144972394
 30
0.0
  0
LINE
  5
C5
330
1F
100
AcDbEntity
  8
0
  6
Continuous
 62
     7
370
    25
100
AcDbLine
 10
6222.8221237073
 20
5092.6954785986
 30
0.0
 11
6223.0458793783
 21
5092.7751302639
 31
0.0
  0
SPLINE
  5
C6
330
1F
100
AcDbEntity
  8
0
  6
Continuous
 62
     7
370
    25
100
AcDbSpline
210
0.0
220
0.0
230
1.0
 70
     8
 71
     3
 72
    13
 73
     9
 74
     0
 42
0.00000001
 43
0.00000001
 40
0.0
 40
0.0
 40
0.0
 40
0.0
 40
0.1945921045770273
 40
0.3892164901962512
 40
0.5831042183268609
 40
0.7765337036200323
 40
0.9702718140457951
 40
0.9999999999999999
 40
0.9999999999999999
 40
0.9999999999999999
 40
0.9999999999999999
 10
6222.162665944261
 20
5093.076216715679
 30
0.0
 10
6222.178189516094
 20
5093.022071000497
 30
0.0
 10
6222.209239234978
 20
5092.913770587855
 30
0.0
 10
6222.320657524125
 20
5092.78222878718
 30
0.0
 10
6222.465512285697
 20
5092.69324011384
 30
0.0
 10
6222.631942600952
 20
5092.657713359964
 30
0.0
 10
6222.753382613651
 20
5092.67226029234
 30
0.0
 10
6222.814052646718
 20
5092.692752480285
 30
0.0
 10
6222.822123707339
 20
5092.695478598647
 30
0.0
  0
LINE
  5
C7
330
1F
100
AcDbEntity
  8
0
  6
Continuous
 62
     7
370
    25
100
AcDbLine
 10
6222.1197684744
 20
5093.3098206436
 30
0.0
 11
6222.1626659443
 21
5093.0762167157
 31
0.0
  0
SPLINE
  5
C8
330
1F
100
AcDbEntity
  8
0
  6
Continuous
 62
     7
370
    25
100
AcDbSpline
210
0.0
220
0.0
230
1.0
 70
     8
 71
     3
 72
    16
 73
    12
 74
     0
 42
0.00000001
 43
0.00000001
 40
0.0
 40
0.0
 40
0.0
 40
0.0
 40
0.1218637754099511
 40
0.2438601478162943
 40
0.3654926707113172
 40
0.4865564122629956
 40
0.6072220222705557
 40
0.727833840976011
 40
0.8487569636478552
 40
0.9702200657688451
 40
1.0
 40
1.0
 40
1.0
 40
1.0
 10
6220.917742197782
 20
5093.309820643623
 30
0.0
 10
6220.936828002581
 20
5093.376271842117
 30
0.0
 10
6220.975020378975
 20
5093.509246543027
 30
0.0
 10
6221.112196989125
 20
5093.670445553242
 30
0.0
 10
6221.290513964073
 20
5093.77904287133
 30
0.0
 10
6221.495421788783
 20
5093.821715702362
 30
0.0
 10
6221.701981280873
 20
5093.794536773496
 30
0.0
 10
6221.888009183887
 20
5093.700854961709
 30
0.0
 10
6222.032303493744
 20
5093.551147107736
 30
0.0
 10
6222.0988317914
 20
5093.409376280283
 30
0.0
 10
6222.116324198538
 20
5093.326198456354
 30
0.0
 10
6222.119768474365
 20
5093.309820643623
 30
0.0
  0
LINE
  5
C9
330
1F
100
AcDbEntity
  8
0
  6
Continuous
 62
     7
370
    25
100
AcDbLine
 10
6220.8748447279
 20
5093.0762167157
 30
0.0
 11
6220.9177421978
 21
5093.3098206436
 31
0.0
  0
SPLINE
  5
CA
330
1F
100
AcDbEntity
  8
0
  6
Continuous
 62
     7
370
    25
100
AcDbSpline
210
0.0
220
0.0
230
1.0
 70
     8
 71
     3
 72
    13
 73
     9
 74
     0
 42
0.00000001
 43
0.00000001
 40
0.0
 40
0.0
 40
0.0
 40
0.0
 40
0.1945921045769725
 40
0.3892164901964037
 40
0.5831042183268583
 40
0.7765337036200415
 40
0.9702718140457685
 40
1.0
 40
1.0
 40
1.0
 40
1.0
 10
6220.215386964808
 20
5092.695478598647
 30
0.0
 10
6220.270040315579
 20
5092.68184954862
 30
0.0
 10
6220.379356083609
 20
5092.654589187633
 30
0.0
 10
6220.548983769226
 20
5092.685309356144
 30
0.0
 10
6220.698477601773
 20
5092.766262922853
 30
0.0
 10
6220.812459830772
 20
5092.892632426887
 30
0.0
 10
6220.860581824137
 20
5093.005076029109
 30
0.0
 10
6220.87317008533
 20
5093.067863912965
 30
0.0
 10
6220.874844727886
 20
5093.076216715679
 30
0.0
  0
LINE
  5
CB
330
1F
100
AcDbEntity
  8
0
  6
Continuous
 62
     7
370
    25
100
AcDbLine
 10
6219.9916312938
 20
5092.7751302639
 30
0.0
 11
6220.2153869648
 21
5092.6954785986
 31
0.0
  0
SPLINE
  5
CC
330
1F
100
AcDbEntity
  8
0
  6
Continuous
 62
     7
370
    25
100
AcDbSpline
210
0.0
220
0.0
230
1.0
 70
     8
 71
     3
 72
    16
 73
    12
 74
     0
 42
0.00000001
 43
0.00000001
 40
0.0
 40
0.0
 40
0.0
 40
0.0
 40
0.1218023084594664
 40
0.2437987986392147
 40
0.3654315109112941
 40
0.4864954175120242
 40
0.6071610515960476
 40
0.7277727005266106
 40
0.8486954911235381
 40
0.9701581997686911
 40
1.0
 40
1.0
 40
1.0
 40
1.0
 10
6219.390618155545
 20
5091.734144972394
 30
0.0
 10
6219.342634937479
 20
5091.783871496818
 30
0.0
 10
6219.246592004738
 20
5091.883403821519
 30
0.0
 10
6219.175555106858
 20
5092.08275519245
 30
0.0
 10
6219.170629903711
 20
5092.291480594737
 30
0.0
 10
6219.236094190293
 20
5092.490283828846
 30
0.0
 10
6219.362883577562
 20
5092.655601883481
 30
0.0
 10
6219.537009022314
 20
5092.769895655863
 30
0.0
 10
6219.738798093727
 20
5092.820037919062
 30
0.0
 10
6219.894877479302
 20
5092.806793092992
 30
0.0
 10
6219.975692200077
 20
5092.780346355963
 30
0.0
 10
6219.991631293836
 20
5092.775130263931
 30
0.0
  0
LINE
  5
CD
330
1F
100
AcDbEntity
  8
0
  6
Continuous
 62
     7
370
    25
100
AcDbLine
 10
6219.5714763566
 20
5091.5801927097
 30
0.0
 11
6219.3906181555
 21
5091.7341449724
 31
0.0
  0
SPLINE
  5
CE
330
1F
100
AcDbEntity
  8
0
  6
Continuous
 62
     7
370
    25
100
AcDbSpline
210
0.0
220
0.0
230
1.0
 70
     8
 71
     3
 72
    13
 73
     9
 74
     0
 42
0.00000001
 43
0.00000001
 40
0.0
 40
0.0
 40
0.0
 40
0.0
 40
0.1945921045769955
 40
0.3892164901961372
 40
0.5831042183270445
 40
0.776533703620041
 40
0.9702718140458512
 40
1.0
 40
1.0
 40
1.0
 40
1.0
 10
6219.571476356621
 20
5090.818716475669
 30
0.0
 10
6219.610606135558
 20
5090.859233140825
 30
0.0
 10
6219.688872184704
 20
5090.94027319248
 30
0.0
 10
6219.747081581176
 20
5091.102535161665
 30
0.0
 10
6219.751720652151
 20
5091.272477401714
 30
0.0
 10
6219.699272565894
 20
5091.434373659625
 30
0.0
 10
6219.625954546559
 20
5091.53227032947
 30
0.0
 10
6219.577872774687
 20
5091.574566025382
 30
0.0
 10
6219.571476356621
 20
5091.580192709734
 30
0.0
  0
LINE
  5
CF
330
1F
100
AcDbEntity
  8
0
  6
Continuous
 62
     7
370
    25
100
AcDbLine
 10
6219.3906181555
 20
5090.664764213
 30
0.0
 11
6219.5714763566
 21
5090.8187164757
 31
0.0
  0
SPLINE
  5
D0
330
1F
100
AcDbEntity
  8
0
  6
Continuous
 62
     7
370
    25
100
AcDbSpline
210
0.0
220
0.0
230
1.0
 70
     8
 71
     3
 72
    13
 73
     9
 74
     0
 42
0.00000001
 43
0.00000001
 40
0.0
 40
0.0
 40
0.0
 40
0.0
 40
0.1945921045769126
 40
0.3892164901963276
 40
0.583104218326917
 40
0.7765337036200879
 40
0.9702718140459256
 40
1.0
 40
1.0
 40
1.0
 40
1.0
 10
6222.822123707339
 20
5089.703430586756
 30
0.0
 10
6222.767470356569
 20
5089.717059636782
 30
0.0
 10
6222.658154588538
 20
5089.744319997769
 30
0.0
 10
6222.488526902921
 20
5089.71359982926
 30
0.0
 10
6222.339033070374
 20
5089.632646262549
 30
0.0
 10
6222.225050841374
 20
5089.506276758516
 30
0.0
 10
6222.17692884801
 20
5089.393833156294
 30
0.0
 10
6222.164340586817
 20
5089.331045272438
 30
0.0
 10
6222.162665944261
 20
5089.322692469724
 30
0.0
  0
CIRCLE
  5
D1
330
1F
100
AcDbEntity
  8
0
  6
Continuous
 62
     7
370
    25
100
AcDbCircle
 10
6326.5187553361
 20
5091.1994545927
 30
0.0
 40
0.75
  0
CIRCLE
  5
D2
330
1F
100
AcDbEntity
  8
0
  6
Continuous
 62
     7
370
    25
100
AcDbCircle
 10
6326.5187553361
 20
5091.1994545927
 30
0.0
 40
4.5
  0
SPLINE
  5
D3
330
1F
100
AcDbEntity
  8
0
  6
Continuous
 62
     7
370
    25
100
AcDbSpline
210
0.0
220
0.0
230
1.0
 70
     8
 71
     3
 72
    16
 73
    12
 74
     0
 42
0.00000001
 43
0.00000001
 40
0.0
 40
0.0
 40
0.0
 40
0.0
 40
0.1218585400097466
 40
0.2438549224446628
 40
0.3654874614654278
 40
0.4865512170680328
 40
0.607216829117597
 40
0.7278286333535067
 40
0.8487517277333497
 40
0.970214796334848
 40
1.0
 40
1.0
 40
1.0
 40
1.0
 10
6324.991631293889
 20
5089.623778921472
 30
0.0
 10
6324.924542971004
 20
5089.607082572476
 30
0.0
 10
6324.790290437098
 20
5089.573670988114
 30
0.0
 10
6324.582102158943
 20
5089.611866249545
 30
0.0
 10
6324.398894137758
 20
5089.711991978638
 30
0.0
 10
6324.25948218346
 20
5089.868108933635
 30
0.0
 10
6324.179737283194
 20
5090.06058302667
 30
0.0
 10
6324.167851139799
 20
5090.268528664969
 30
0.0
 10
6324.225351928804
 20
5090.468345907653
 30
0.0
 10
6324.314864668066
 20
5090.596850408784
 30
0.0
 10
6324.378154532266
 20
5090.653590442632
 30
0.0
 10
6324.390618155598
 20
5090.664764213007
 30
0.0
  0
LINE
  5
D4
330
1F
100
AcDbEntity
  8
0
  6
Continuous
 62
     7
370
    25
100
AcDbLine
 10
6325.2153869649
 20
5089.7034305868
 30
0.0
 11
6324.9916312939
 21
5089.6237789215
 31
0.0
  0
SPLINE
  5
D5
330
1F
100
AcDbEntity
  8
0
  6
Continuous
 62
     7
370
    25
100
AcDbSpline
210
0.0
220
0.0
230
1.0
 70
     8
 71
     3
 72
    13
 73
     9
 74
     0
 42
0.00000001
 43
0.00000001
 40
0.0
 40
0.0
 40
0.0
 40
0.0
 40
0.1945921045771
 40
0.3892164901963702
 40
0.5831042183270193
 40
0.7765337036201375
 40
0.9702718140458698
 40
1.0
 40
1.0
 40
1.0
 40
1.0
 10
6325.874844727939
 20
5089.322692469724
 30
0.0
 10
6325.859321156106
 20
5089.376838184906
 30
0.0
 10
6325.828271437223
 20
5089.485138597547
 30
0.0
 10
6325.716853148076
 20
5089.616680398223
 30
0.0
 10
6325.571998386504
 20
5089.705669071563
 30
0.0
 10
6325.405568071248
 20
5089.74119582544
 30
0.0
 10
6325.284128058549
 20
5089.726648893063
 30
0.0
 10
6325.223458025483
 20
5089.706156705118
 30
0.0
 10
6325.215386964861
 20
5089.703430586756
 30
0.0
  0
LINE
  5
D6
330
1F
100
AcDbEntity
  8
0
  6
Continuous
 62
     7
370
    25
100
AcDbLine
 10
6325.9177421978
 20
5089.0890885418
 30
0.0
 11
6325.8748447279
 21
5089.3226924697
 31
0.0
  0
SPLINE
  5
D7
330
1F
100
AcDbEntity
  8
0
  6
Continuous
 62
     7
370
    25
100
AcDbSpline
210
0.0
220
0.0
230
1.0
 70
     8
 71
     3
 72
    16
 73
    12
 74
     0
 42
0.00000001
 43
0.00000001
 40
0.0
 40
0.0
 40
0.0
 40
0.0
 40
0.1218637754100744
 40
0.2438601478163014
 40
0.3654926707113217
 40
0.4865564122629626
 40
0.6072220222705131
 40
0.7278338409759595
 40
0.8487569636477629
 40
0.9702200657688181
 40
1.0
 40
1.0
 40
1.0
 40
1.0
 10
6327.119768474418
 20
5089.089088541778
 30
0.0
 10
6327.100682669619
 20
5089.022637343286
 30
0.0
 10
6327.062490293225
 20
5088.889662642376
 30
0.0
 10
6326.925313683076
 20
5088.728463632162
 30
0.0
 10
6326.746996708127
 20
5088.619866314073
 30
0.0
 10
6326.542088883418
 20
5088.577193483042
 30
0.0
 10
6326.335529391327
 20
5088.604372411907
 30
0.0
 10
6326.149501488313
 20
5088.698054223695
 30
0.0
 10
6326.005207178457
 20
5088.847762077668
 30
0.0
 10
6325.938678880801
 20
5088.989532905121
 30
0.0
 10
6325.921186473663
 20
5089.072710729049
 30
0.0
 10
6325.917742197836
 20
5089.089088541778
 30
0.0
  0
LINE
  5
D8
330
1F
100
AcDbEntity
  8
0
  6
Continuous
 62
     7
370
    25
100
AcDbLine
 10
6327.1626659443
 20
5089.3226924697
 30
0.0
 11
6327.1197684744
 21
5089.0890885418
 31
0.0
  0
LINE
  5
D9
330
1F
100
AcDbEntity
  8
0
  6
Continuous
 62
     7
370
    25
100
AcDbLine
 10
6328.0458793784
 20
5089.6237789215
 30
0.0
 11
6327.8221237074
 21
5089.7034305868
 31
0.0
  0
SPLINE
  5
DA
330
1F
100
AcDbEntity
  8
0
  6
Continuous
 62
     7
370
    25
100
AcDbSpline
210
0.0
220
0.0
230
1.0
 70
     8
 71
     3
 72
    16
 73
    12
 74
     0
 42
0.00000001
 43
0.00000001
 40
0.0
 40
0.0
 40
0.0
 40
0.0
 40
0.1218023084595179
 40
0.2437987986391817
 40
0.3654315109113083
 40
0.4864954175119995
 40
0.6071610515961637
 40
0.7277727005266317
 40
0.8486954911235407
 40
0.970158199768721
 40
1.0
 40
1.0
 40
1.0
 40
1.0
 10
6328.646892516655
 20
5090.664764213008
 30
0.0
 10
6328.694875734721
 20
5090.615037688585
 30
0.0
 10
6328.790918667461
 20
5090.515505363884
 30
0.0
 10
6328.861955565342
 20
5090.316153992953
 30
0.0
 10
6328.866880768489
 20
5090.107428590666
 30
0.0
 10
6328.801416481908
 20
5089.908625356557
 30
0.0
 10
6328.674627094639
 20
5089.743307301922
 30
0.0
 10
6328.500501649886
 20
5089.629013529539
 30
0.0
 10
6328.298712578473
 20
5089.578871266341
 30
0.0
 10
6328.1426331929
 20
5089.592116092411
 30
0.0
 10
6328.061818472123
 20
5089.61856282944
 30
0.0
 10
6328.045879378365
 20
5089.623778921472
 30
0.0
  0
LINE
  5
DB
330
1F
100
AcDbEntity
  8
0
  6
Continuous
 62
     7
370
    25
100
AcDbLine
 10
6328.4660343156
 20
5090.8187164757
 30
0.0
 11
6328.6468925167
 21
5090.664764213
 31
0.0
  0
SPLINE
  5
DC
330
1F
100
AcDbEntity
  8
0
  6
Continuous
 62
     7
370
    25
100
AcDbSpline
210
0.0
220
0.0
230
1.0
 70
     8
 71
     3
 72
    13
 73
     9
 74
     0
 42
0.00000001
 43
0.00000001
 40
0.0
 40
0.0
 40
0.0
 40
0.0
 40
0.1945921045769553
 40
0.3892164901962598
 40
0.5831042183268476
 40
0.7765337036201658
 40
0.9702718140458332
 40
1.0
 40
1.0
 40
1.0
 40
1.0
 10
6328.466034315579
 20
5091.580192709734
 30
0.0
 10
6328.426904536643
 20
5091.539676044577
 30
0.0
 10
6328.348638487496
 20
5091.458635992924
 30
0.0
 10
6328.290429091025
 20
5091.296374023738
 30
0.0
 10
6328.28579002005
 20
5091.126431783688
 30
0.0
 10
6328.338238106307
 20
5090.964535525778
 30
0.0
 10
6328.411556125641
 20
5090.866638855933
 30
0.0
 10
6328.459637897514
 20
5090.824343160022
 30
0.0
 10
6328.466034315579
 20
5090.818716475669
 30
0.0
  0
LINE
  5
DD
330
1F
100
AcDbEntity
  8
0
  6
Continuous
 62
     7
370
    25
100
AcDbLine
 10
6328.6468925167
 20
5091.7341449724
 30
0.0
 11
6328.4660343156
 21
5091.5801927097
 31
0.0
  0
SPLINE
  5
DE
330
1F
100
AcDbEntity
  8
0
  6
Continuous
 62
     7
370
    25
100
AcDbSpline
210
0.0
220
0.0
230
1.0
 70
     8
 71
     3
 72
    16
 73
    12
 74
     0
 42
0.00000001
 43
0.00000001
 40
0.0
 40
0.0
 40
0.0
 40
0.0
 40
0.1218585400097055
 40
0.2438549224446302
 40
0.3654874614654055
 40
0.4865512170680177
 40
0.6072168291173949
 40
0.7278286333533927
 40
0.8487517277332145
 40
0.9702147963347939
 40
1.0
 40
1.0
 40
1.0
 40
1.0
 10
6328.045879378365
 20
5092.775130263931
 30
0.0
 10
6328.11296770125
 20
5092.791826612927
 30
0.0
 10
6328.247220235156
 20
5092.825238197289
 30
0.0
 10
6328.455408513311
 20
5092.787042935859
 30
0.0
 10
6328.638616534496
 20
5092.686917206765
 30
0.0
 10
6328.778028488793
 20
5092.530800251767
 30
0.0
 10
6328.857773389059
 20
5092.338326158732
 30
0.0
 10
6328.869659532455
 20
5092.130380520434
 30
0.0
 10
6328.812158743449
 20
5091.93056327775
 30
0.0
 10
6328.722646004187
 20
5091.802058776619
 30
0.0
 10
6328.659356139988
 20
5091.745318742771
 30
0.0
 10
6328.646892516655
 20
5091.734144972394
 30
0.0
  0
LINE
  5
DF
330
1F
100
AcDbEntity
  8
0
  6
Continuous
 62
     7
370
    25
100
AcDbLine
 10
6327.8221237074
 20
5092.6954785986
 30
0.0
 11
6328.0458793784
 21
5092.7751302639
 31
0.0
  0
SPLINE
  5
E0
330
1F
100
AcDbEntity
  8
0
  6
Continuous
 62
     7
370
    25
100
AcDbSpline
210
0.0
220
0.0
230
1.0
 70
     8
 71
     3
 72
    13
 73
     9
 74
     0
 42
0.00000001
 43
0.00000001
 40
0.0
 40
0.0
 40
0.0
 40
0.0
 40
0.1945921045770271
 40
0.3892164901962509
 40
0.5831042183268673
 40
0.7765337036200386
 40
0.9702718140457952
 40
1.0
 40
1.0
 40
1.0
 40
1.0
 10
6327.162665944315
 20
5093.076216715679
 30
0.0
 10
6327.178189516147
 20
5093.022071000497
 30
0.0
 10
6327.209239235031
 20
5092.913770587855
 30
0.0
 10
6327.320657524178
 20
5092.78222878718
 30
0.0
 10
6327.46551228575
 20
5092.69324011384
 30
0.0
 10
6327.631942601006
 20
5092.657713359964
 30
0.0
 10
6327.753382613705
 20
5092.67226029234
 30
0.0
 10
6327.814052646771
 20
5092.692752480285
 30
0.0
 10
6327.822123707392
 20
5092.695478598647
 30
0.0
  0
LINE
  5
E1
330
1F
100
AcDbEntity
  8
0
  6
Continuous
 62
     7
370
    25
100
AcDbLine
 10
6327.1197684744
 20
5093.3098206436
 30
0.0
 11
6327.1626659443
 21
5093.0762167157
 31
0.0
  0
SPLINE
  5
E2
330
1F
100
AcDbEntity
  8
0
  6
Continuous
 62
     7
370
    25
100
AcDbSpline
210
0.0
220
0.0
230
1.0
 70
     8
 71
     3
 72
    16
 73
    12
 74
     0
 42
0.00000001
 43
0.00000001
 40
0.0
 40
0.0
 40
0.0
 40
0.0
 40
0.1218637754099513
 40
0.2438601478162948
 40
0.3654926707113179
 40
0.4865564122629965
 40
0.6072220222705527
 40
0.7278338409760083
 40
0.8487569636478557
 40
0.970220065768844
 40
0.9999999999999999
 40
0.9999999999999999
 40
0.9999999999999999
 40
0.9999999999999999
 10
6325.917742197836
 20
5093.309820643623
 30
0.0
 10
6325.936828002634
 20
5093.376271842117
 30
0.0
 10
6325.975020379028
 20
5093.509246543027
 30
0.0
 10
6326.112196989178
 20
5093.670445553242
 30
0.0
 10
6326.290513964126
 20
5093.77904287133
 30
0.0
 10
6326.495421788835
 20
5093.821715702362
 30
0.0
 10
6326.701981280926
 20
5093.794536773496
 30
0.0
 10
6326.88800918394
 20
5093.700854961709
 30
0.0
 10
6327.032303493797
 20
5093.551147107736
 30
0.0
 10
6327.098831791453
 20
5093.409376280283
 30
0.0
 10
6327.116324198591
 20
5093.326198456354
 30
0.0
 10
6327.119768474418
 20
5093.309820643623
 30
0.0
  0
LINE
  5
E3
330
1F
100
AcDbEntity
  8
0
  6
Continuous
 62
     7
370
    25
100
AcDbLine
 10
6325.8748447279
 20
5093.0762167157
 30
0.0
 11
6325.9177421978
 21
5093.3098206436
 31
0.0
  0
SPLINE
  5
E4
330
1F
100
AcDbEntity
  8
0
  6
Continuous
 62
     7
370
    25
100
AcDbSpline
210
0.0
220
0.0
230
1.0
 70
     8
 71
     3
 72
    13
 73
     9
 74
     0
 42
0.00000001
 43
0.00000001
 40
0.0
 40
0.0
 40
0.0
 40
0.0
 40
0.1945921045769649
 40
0.3892164901964043
 40
0.5831042183268592
 40
0.7765337036200425
 40
0.9702718140457667
 40
1.0
 40
1.0
 40
1.0
 40
1.0
 10
6325.215386964861
 20
5092.695478598647
 30
0.0
 10
6325.270040315632
 20
5092.68184954862
 30
0.0
 10
6325.379356083662
 20
5092.654589187633
 30
0.0
 10
6325.548983769279
 20
5092.685309356144
 30
0.0
 10
6325.698477601826
 20
5092.766262922853
 30
0.0
 10
6325.812459830826
 20
5092.892632426887
 30
0.0
 10
6325.86058182419
 20
5093.005076029109
 30
0.0
 10
6325.873170085383
 20
5093.067863912965
 30
0.0
 10
6325.874844727939
 20
5093.076216715679
 30
0.0
  0
LINE
  5
E5
330
1F
100
AcDbEntity
  8
0
  6
Continuous
 62
     7
370
    25
100
AcDbLine
 10
6324.9916312939
 20
5092.7751302639
 30
0.0
 11
6325.2153869649
 21
5092.6954785986
 31
0.0
  0
SPLINE
  5
E6
330
1F
100
AcDbEntity
  8
0
  6
Continuous
 62
     7
370
    25
100
AcDbSpline
210
0.0
220
0.0
230
1.0
 70
     8
 71
     3
 72
    16
 73
    12
 74
     0
 42
0.00000001
 43
0.00000001
 40
0.0
 40
0.0
 40
0.0
 40
0.0
 40
0.1218023084594663
 40
0.2437987986392144
 40
0.3654315109112937
 40
0.4864954175120224
 40
0.6071610515960482
 40
0.727772700526611
 40
0.8486954911235384
 40
0.9701581997686872
 40
1.0
 40
1.0
 40
1.0
 40
1.0
 10
6324.390618155598
 20
5091.734144972394
 30
0.0
 10
6324.342634937533
 20
5091.783871496818
 30
0.0
 10
6324.246592004792
 20
5091.883403821519
 30
0.0
 10
6324.175555106911
 20
5092.08275519245
 30
0.0
 10
6324.170629903765
 20
5092.291480594737
 30
0.0
 10
6324.236094190345
 20
5092.490283828846
 30
0.0
 10
6324.362883577615
 20
5092.655601883481
 30
0.0
 10
6324.537009022367
 20
5092.769895655863
 30
0.0
 10
6324.73879809378
 20
5092.820037919062
 30
0.0
 10
6324.894877479354
 20
5092.806793092992
 30
0.0
 10
6324.975692200131
 20
5092.780346355963
 30
0.0
 10
6324.991631293889
 20
5092.775130263931
 30
0.0
  0
LINE
  5
E7
330
1F
100
AcDbEntity
  8
0
  6
Continuous
 62
     7
370
    25
100
AcDbLine
 10
6324.5714763567
 20
5091.5801927097
 30
0.0
 11
6324.3906181556
 21
5091.7341449724
 31
0.0
  0
SPLINE
  5
E8
330
1F
100
AcDbEntity
  8
0
  6
Continuous
 62
     7
370
    25
100
AcDbSpline
210
0.0
220
0.0
230
1.0
 70
     8
 71
     3
 72
    13
 73
     9
 74
     0
 42
0.00000001
 43
0.00000001
 40
0.0
 40
0.0
 40
0.0
 40
0.0
 40
0.1945921045769902
 40
0.3892164901961346
 40
0.5831042183270414
 40
0.7765337036200353
 40
0.9702718140458453
 40
0.9999999999999999
 40
0.9999999999999999
 40
0.9999999999999999
 40
0.9999999999999999
 10
6324.571476356674
 20
5090.818716475669
 30
0.0
 10
6324.610606135612
 20
5090.859233140825
 30
0.0
 10
6324.688872184757
 20
5090.94027319248
 30
0.0
 10
6324.747081581228
 20
5091.102535161665
 30
0.0
 10
6324.751720652203
 20
5091.272477401714
 30
0.0
 10
6324.699272565947
 20
5091.434373659625
 30
0.0
 10
6324.625954546613
 20
5091.53227032947
 30
0.0
 10
6324.577872774739
 20
5091.574566025382
 30
0.0
 10
6324.571476356674
 20
5091.580192709734
 30
0.0
  0
LINE
  5
E9
330
1F
100
AcDbEntity
  8
0
  6
Continuous
 62
     7
370
    25
100
AcDbLine
 10
6324.3906181556
 20
5090.664764213
 30
0.0
 11
6324.5714763567
 21
5090.8187164757
 31
0.0
  0
SPLINE
  5
EA
330
1F
100
AcDbEntity
  8
0
  6
Continuous
 62
     7
370
    25
100
AcDbSpline
210
0.0
220
0.0
230
1.0
 70
     8
 71
     3
 72
    13
 73
     9
 74
     0
 42
0.00000001
 43
0.00000001
 40
0.0
 40
0.0
 40
0.0
 40
0.0
 40
0.1945921045769151
 40
0.3892164901963227
 40
0.5831042183269197
 40
0.7765337036200858
 40
0.9702718140459271
 40
0.9999999999999999
 40
0.9999999999999999
 40
0.9999999999999999
 40
0.9999999999999999
 10
6327.822123707392
 20
5089.703430586756
 30
0.0
 10
6327.767470356622
 20
5089.717059636782
 30
0.0
 10
6327.658154588592
 20
5089.744319997769
 30
0.0
 10
6327.488526902975
 20
5089.71359982926
 30
0.0
 10
6327.339033070427
 20
5089.632646262549
 30
0.0
 10
6327.225050841427
 20
5089.506276758517
 30
0.0
 10
6327.176928848064
 20
5089.393833156294
 30
0.0
 10
6327.16434058687
 20
5089.331045272438
 30
0.0
 10
6327.162665944315
 20
5089.322692469724
 30
0.0
  0
LINE
  5
EB
330
1F
100
AcDbEntity
  8
0
  6
Continuous
 62
     7
370
    25
100
AcDbLine
 10
6304.7984726222
 20
5207.3176603324
 30
0.0
 11
6293.2664585557
 21
5206.0636062783
 31
0.0
  0
LINE
  5
EC
330
1F
100
AcDbEntity
  8
0
  6
Continuous
 62
     7
370
    25
100
AcDbLine
 10
6304.1498239735
 20
5213.2824951943
 30
0.0
 11
6292.617809907
 21
5212.0284411403
 31
0.0
  0
LINE
  5
ED
330
1F
100
AcDbEntity
  8
0
  6
Continuous
 62
     7
370
    25
100
AcDbLine
 10
6292.617809907
 20
5212.0284411403
 30
0.0
 11
6293.2664585557
 21
5206.0636062783
 31
0.0
  0
LINE
  5
EE
330
1F
100
AcDbEntity
  8
0
  6
Continuous
 62
     7
370
    25
100
AcDbLine
 10
6304.1498239735
 20
5213.2824951943
 30
0.0
 11
6304.7984726222
 21
5207.3176603324
 31
0.0
  0
LINE
  5
EF
330
1F
100
AcDbEntity
  8
0
  6
Continuous
 62
     7
370
    25
100
AcDbLine
 10
6305.7714455951
 20
5198.3704080394
 30
0.0
 11
6294.2394315286
 21
5197.1163539854
 31
0.0
  0
LINE
  5
F0
330
1F
100
AcDbEntity
  8
0
  6
Continuous
 62
     7
370
    25
100
AcDbLine
 10
6293.2664585557
 20
5206.0636062783
 30
0.0
 11
6294.2394315286
 21
5197.1163539854
 31
0.0
  0
LINE
  5
F1
330
1F
100
AcDbEntity
  8
0
  6
Continuous
 62
     7
370
    25
100
AcDbLine
 10
6304.7984726222
 20
5207.3176603324
 30
0.0
 11
6305.7714455951
 21
5198.3704080394
 31
0.0
  0
CIRCLE
  5
F2
330
1F
100
AcDbEntity
  8
0
  6
Continuous
 62
     7
370
    25
100
AcDbCircle
 10
6299.2187553361
 20
5272.6994545927
 30
0.0
 40
10.09999999999945
  0
ARC
  5
F3
330
1F
100
AcDbEntity
  8
0
  6
Continuous
 62
     7
370
    25
100
AcDbCircle
 10
6299.2187553361
 20
5272.6994545927
 30
0.0
 40
12.50000000000089
100
AcDbArc
 50
239.7687137449
 51
120.2312862551
  0
LINE
  5
F4
330
1F
100
AcDbEntity
  8
0
  6
Continuous
 62
     7
370
    25
100
AcDbLine
 10
6292.9251077451
 20
5261.8994545927
 30
0.0
 11
6272.9251077451
 21
5261.8994545927
 31
0.0
  0
LINE
  5
F5
330
1F
100
AcDbEntity
  8
0
  6
Continuous
 62
     7
370
    25
100
AcDbLine
 10
6272.9251077451
 20
5283.4994545927
 30
0.0
 11
6272.9251077451
 21
5261.8994545927
 31
0.0
  0
LINE
  5
F6
330
1F
100
AcDbEntity
  8
0
  6
Continuous
 62
     7
370
    25
100
AcDbLine
 10
6272.9251077451
 20
5283.4994545927
 30
0.0
 11
6292.9251077451
 21
5283.4994545927
 31
0.0
  0
LINE
  5
F7
330
1F
100
AcDbEntity
  8
0
  6
Continuous
 62
     7
370
    25
100
AcDbLine
 10
6262.0187553361
 20
5261.8994545927
 30
0.0
 11
6272.9251077451
 21
5261.8994545927
 31
0.0
  0
LINE
  5
F8
330
1F
100
AcDbEntity
  8
0
  6
Continuous
 62
     7
370
    25
100
AcDbLine
 10
6262.0187553361
 20
5283.4994545927
 30
0.0
 11
6272.9251077451
 21
5283.4994545927
 31
0.0
  0
LINE
  5
F9
330
1F
100
AcDbEntity
  8
0
  6
Continuous
 62
     7
370
    25
100
AcDbLine
 10
6288.8929745846
 20
5283.4994545927
 30
0.0
 11
6288.8675729201
 21
5283.6994545927
 31
0.0
  0
LINE
  5
FA
330
1F
100
AcDbEntity
  8
0
  6
Continuous
 62
     7
370
    25
100
AcDbLine
 10
6292.8977724183
 20
5283.7146792819
 30
0.0
 11
6292.9251077451
 21
5283.4994545927
 31
0.0
  0
LINE
  5
FB
330
1F
100
AcDbEntity
  8
0
  6
Continuous
 62
     7
370
    25
100
AcDbLine
 10
6298.9251077451
 20
5236.3528731785
 30
0.0
 11
6292.7614450544
 21
5235.6826029082
 31
0.0
  0
LINE
  5
FC
330
1F
100
AcDbEntity
  8
0
  6
Continuous
 62
     7
370
    25
100
AcDbLine
 10
6294.279330168
 20
5196.8994545927
 30
0.0
 11
6306.3500750698
 21
5196.8994545927
 31
0.0
  0
LINE
  5
FD
330
1F
100
AcDbEntity
  8
0
  6
Continuous
 62
     7
370
    25
100
AcDbLine
 10
6301.4656482856
 20
5212.9906033024
 30
0.0
 11
6298.9251077451
 21
5236.3528731785
 31
0.0
  0
LINE
  5
FE
330
1F
100
AcDbEntity
  8
0
  6
Continuous
 62
     7
370
    25
100
AcDbLine
 10
6295.0654149693
 20
5214.4957861348
 30
0.0
 11
6295.3019855949
 21
5212.3203330322
 31
0.0
  0
LINE
  5
FF
330
1F
100
AcDbEntity
  8
0
  6
Continuous
 62
     7
370
    25
100
AcDbLine
 10
6286.7419938139
 20
5301.8994545927
 30
0.0
 11
6290.2763903177
 21
5301.8994545927
 31
0.0
  0
LINE
  5
100
330
1F
100
AcDbEntity
  8
0
  6
Continuous
 62
     7
370
    25
100
AcDbLine
 10
6224.0187553361
 20
5123.1994545927
 30
0.0
 11
6224.2687553361
 21
5123.1994545927
 31
0.0
  0
LINE
  5
101
330
1F
100
AcDbEntity
  8
0
  6
Continuous
 62
     7
370
    25
100
AcDbLine
 10
6224.0187553361
 20
5127.1994545927
 30
0.0
 11
6224.2687553361
 21
5127.1994545927
 31
0.0
  0
SPLINE
  5
102
330
1F
100
AcDbEntity
  8
0
  6
Continuous
 62
     7
370
    25
100
AcDbSpline
210
0.0
220
0.0
230
1.0
 70
     8
 71
     3
 72
     9
 73
     5
 74
     0
 42
0.00000001
 43
0.00000001
 40
0.0
 40
0.0
 40
0.0
 40
0.0
 40
0.2637295424454533
 40
1.0
 40
1.0
 40
1.0
 40
1.0
 10
6224.2687553361
 20
5122.508775740007
 30
0.0
 10
6224.244097772352
 20
5122.507112076811
 30
0.0
 10
6224.15060212708
 20
5122.500803859758
 30
0.0
 10
6224.074665345224
 20
5122.493933535292
 30
0.0
 10
6224.018755336103
 20
5122.488875118354
 30
0.0
  0
SPLINE
  5
103
330
1F
100
AcDbEntity
  8
0
  6
Continuous
 62
     7
370
    25
100
AcDbSpline
210
0.0
220
0.0
230
1.0
 70
     8
 71
     3
 72
     9
 73
     5
 74
     0
 42
0.00000001
 43
0.00000001
 40
0.0
 40
0.0
 40
0.0
 40
0.0
 40
0.4249262955960143
 40
1.0
 40
1.0
 40
1.0
 40
1.0
 10
6224.2687553361
 20
5121.808581005052
 30
0.0
 10
6224.229179972934
 20
5121.805910591379
 30
0.0
 10
6224.136045319755
 20
5121.799626175231
 30
0.0
 10
6224.061578973626
 20
5121.792880680828
 30
0.0
 10
6224.018755336103
 20
5121.789001524374
 30
0.0
  0
SPLINE
  5
104
330
1F
100
AcDbEntity
  8
0
  6
Continuous
 62
     7
370
    25
100
AcDbSpline
210
0.0
220
0.0
230
1.0
 70
     8
 71
     3
 72
     9
 73
     5
 74
     0
 42
0.00000001
 43
0.00000001
 40
0.0
 40
0.0
 40
0.0
 40
0.0
 40
0.5921839641150153
 40
1.0
 40
1.0
 40
1.0
 40
1.0
 10
6224.2687553361
 20
5121.108428651062
 30
0.0
 10
6224.21393979726
 20
5121.104730723569
 30
0.0
 10
6224.121374746258
 20
5121.098486164925
 30
0.0
 10
6224.048482118572
 20
5121.091881754203
 30
0.0
 10
6224.018755336103
 20
5121.089188369604
 30
0.0
  0
SPLINE
  5
105
330
1F
100
AcDbEntity
  8
0
  6
Continuous
 62
     7
370
    25
100
AcDbSpline
210
0.0
220
0.0
230
1.0
 70
     8
 71
     3
 72
     9
 73
     5
 74
     0
 42
0.00000001
 43
0.00000001
 40
0.0
 40
0.0
 40
0.0
 40
0.0
 40
0.767790565061935
 40
1.0
 40
1.0
 40
1.0
 40
1.0
 10
6224.2687553361
 20
5120.408319870647
 30
0.0
 10
6224.198291513473
 20
5120.403569584492
 30
0.0
 10
6224.10651671728
 20
5120.397382628867
 30
0.0
 10
6224.035293937541
 20
5120.390936132006
 30
0.0
 10
6224.018755336103
 20
5120.389439194611
 30
0.0
  0
SPLINE
  5
106
330
1F
100
AcDbEntity
  8
0
  6
Continuous
 62
     7
370
    25
100
AcDbSpline
210
0.0
220
0.0
230
1.0
 70
     8
 71
     3
 72
     9
 73
     5
 74
     0
 42
0.00000001
 43
0.00000001
 40
0.0
 40
0.0
 40
0.0
 40
0.0
 40
0.9545639467066105
 40
1.0
 40
1.0
 40
1.0
 40
1.0
 10
6224.2687553361
 20
5119.708256002245
 30
0.0
 10
6224.18212740831
 20
5119.702423822579
 30
0.0
 10
6224.091376099203
 20
5119.696314038433
 30
0.0
 10
6224.021911531885
 20
5119.690042908095
 30
0.0
 10
6224.018755336103
 20
5119.689757972683
 30
0.0
  0
LINE
  5
107
330
1F
100
AcDbEntity
  8
0
  6
Continuous
 62
     7
370
    25
100
AcDbLine
 10
6224.2687553361
 20
5119.0082385432
 30
0.0
 11
6224.0187553361
 21
5118.989620354
 31
0.0
  0
LINE
  5
108
330
1F
100
AcDbEntity
  8
0
  6
Continuous
 62
     7
370
    25
100
AcDbLine
 10
6224.2687553361
 20
5118.3082691645
 30
0.0
 11
6224.0187553361
 21
5118.2893682073
 31
0.0
  0
LINE
  5
109
330
1F
100
AcDbEntity
  8
0
  6
Continuous
 62
     7
370
    25
100
AcDbLine
 10
6224.2687553361
 20
5117.608349728
 30
0.0
 11
6224.0187553361
 21
5117.5891594286
 31
0.0
  0
LINE
  5
10A
330
1F
100
AcDbEntity
  8
0
  6
Continuous
 62
     7
370
    25
100
AcDbLine
 10
6224.2865516911
 20
5116.9098694814
 30
0.0
 11
6224.0764517728
 21
5116.8934927781
 31
0.0
  0
SPLINE
  5
10B
330
1F
100
AcDbEntity
  8
0
  6
Continuous
 62
     7
370
    25
100
AcDbSpline
210
0.0
220
0.0
230
1.0
 70
     8
 71
     3
 72
     9
 73
     5
 74
     0
 42
0.00000001
 43
0.00000001
 40
0.0
 40
0.0
 40
0.0
 40
0.0
 40
0.0498842299689452
 40
1.0
 40
1.0
 40
1.0
 40
1.0
 10
6224.366871637534
 20
5116.216262685821
 30
0.0
 10
6224.362381697477
 20
5116.215966632141
 30
0.0
 10
6224.272374493568
 20
5116.210031817073
 30
0.0
 10
6224.194644533863
 20
5116.203326551669
 30
0.0
 10
6224.120792073341
 20
5116.196955773266
 30
0.0
  0
SPLINE
  5
10C
330
1F
100
AcDbEntity
  8
0
  6
Continuous
 62
     7
370
    25
100
AcDbSpline
210
0.0
220
0.0
230
1.0
 70
     8
 71
     3
 72
     9
 73
     5
 74
     0
 42
0.00000001
 43
0.00000001
 40
0.0
 40
0.0
 40
0.0
 40
0.0
 40
0.847492884500415
 40
1.0
 40
1.0
 40
1.0
 40
1.0
 10
6224.553970035034
 20
5115.528530439056
 30
0.0
 10
6224.469094201792
 20
5115.523279875961
 30
0.0
 10
6224.368944885151
 20
5115.517084469259
 30
0.0
 10
6224.283338208837
 20
5115.510100838739
 30
0.0
 10
6224.270282581565
 20
5115.509035785393
 30
0.0
  0
SPLINE
  5
10D
330
1F
100
AcDbEntity
  8
0
  6
Continuous
 62
     7
370
    25
100
AcDbSpline
210
0.0
220
0.0
230
1.0
 70
     8
 71
     3
 72
     9
 73
     5
 74
     0
 42
0.00000001
 43
0.00000001
 40
0.0
 40
0.0
 40
0.0
 40
0.0
 40
0.689055136687459
 40
1.0
 40
1.0
 40
1.0
 40
1.0
 10
6225.012411220532
 20
5114.859871134409
 30
0.0
 10
6224.947738894779
 20
5114.855307622503
 30
0.0
 10
6224.853882362392
 20
5114.848684768013
 30
0.0
 10
6224.758464232968
 20
5114.842268487298
 30
0.0
 10
6224.728794455756
 20
5114.840273377768
 30
0.0
  0
SPLINE
  5
10E
330
1F
100
AcDbEntity
  8
0
  6
Continuous
 62
     7
370
    25
100
AcDbSpline
210
0.0
220
0.0
230
1.0
 70
     8
 71
     3
 72
     9
 73
     5
 74
     0
 42
0.00000001
 43
0.00000001
 40
0.0
 40
0.0
 40
0.0
 40
0.0
 40
0.1801064257231078
 40
1.0
 40
1.0
 40
1.0
 40
1.0
 10
6225.879593970205
 20
5114.228921019821
 30
0.0
 10
6225.861595236311
 20
5114.226961094403
 30
0.0
 10
6225.76166135654
 20
5114.21607905391
 30
0.0
 10
6225.606418499638
 20
5114.204090851166
 30
0.0
 10
6225.479135878813
 20
5114.19426180077
 30
0.0
  0
LINE
  5
10F
330
1F
100
AcDbEntity
  8
0
  6
Continuous
 62
     7
370
    25
100
AcDbLine
 10
6224.2687553361
 20
5122.2967592161
 30
0.0
 11
6224.0187553361
 21
5122.2814637724
 31
0.0
  0
LINE
  5
110
330
1F
100
AcDbEntity
  8
0
  6
Continuous
 62
     7
370
    25
100
AcDbLine
 10
6224.2687553361
 20
5121.5967592161
 30
0.0
 11
6224.0187553361
 21
5121.5814637724
 31
0.0
  0
LINE
  5
111
330
1F
100
AcDbEntity
  8
0
  6
Continuous
 62
     7
370
    25
100
AcDbLine
 10
6224.2687553361
 20
5120.8967592161
 30
0.0
 11
6224.0187553361
 21
5120.8814637724
 31
0.0
  0
LINE
  5
112
330
1F
100
AcDbEntity
  8
0
  6
Continuous
 62
     7
370
    25
100
AcDbLine
 10
6224.2687553361
 20
5120.1967592161
 30
0.0
 11
6224.0187553361
 21
5120.1814637724
 31
0.0
  0
LINE
  5
113
330
1F
100
AcDbEntity
  8
0
  6
Continuous
 62
     7
370
    25
100
AcDbLine
 10
6224.2687553361
 20
5119.4967592161
 30
0.0
 11
6224.0187553361
 21
5119.4814637724
 31
0.0
  0
LINE
  5
114
330
1F
100
AcDbEntity
  8
0
  6
Continuous
 62
     7
370
    25
100
AcDbLine
 10
6224.2687553361
 20
5118.7967592161
 30
0.0
 11
6224.0187553361
 21
5118.7814637724
 31
0.0
  0
LINE
  5
115
330
1F
100
AcDbEntity
  8
0
  6
Continuous
 62
     7
370
    25
100
AcDbLine
 10
6224.2687553361
 20
5118.0967592161
 30
0.0
 11
6224.0187553361
 21
5118.0814637724
 31
0.0
  0
LINE
  5
116
330
1F
100
AcDbEntity
  8
0
  6
Continuous
 62
     7
370
    25
100
AcDbLine
 10
6224.2687553361
 20
5117.3967592161
 30
0.0
 11
6224.0187553361
 21
5117.3814637724
 31
0.0
  0
LINE
  5
117
330
1F
100
AcDbEntity
  8
0
  6
Continuous
 62
     7
370
    25
100
AcDbLine
 10
6224.2692959395
 20
5116.6967922912
 30
0.0
 11
6224.0223636995
 21
5116.6816845385
 31
0.0
  0
SPLINE
  5
118
330
1F
100
AcDbEntity
  8
0
  6
Continuous
 62
     7
370
    25
100
AcDbSpline
210
0.0
220
0.0
230
1.0
 70
     8
 71
     3
 72
     9
 73
     5
 74
     0
 42
0.00000001
 43
0.00000001
 40
0.0
 40
0.0
 40
0.0
 40
0.0
 40
0.0103099377289923
 40
1.0
 40
1.0
 40
1.0
 40
1.0
 10
6224.409697271167
 20
5116.005359917634
 30
0.0
 10
6224.408793968456
 20
5116.005312149149
 30
0.0
 10
6224.321179209344
 20
5116.000678902437
 30
0.0
 10
6224.241559438868
 20
5115.995449627758
 30
0.0
 10
6224.162760543268
 20
5115.990274266574
 30
0.0
  0
LINE
  5
119
330
1F
100
AcDbEntity
  8
0
  6
Continuous
 62
     7
370
    25
100
AcDbLine
 10
6224.6965696613
 20
5115.3205417811
 30
0.0
 11
6224.4099173206
 21
5115.3053715631
 31
0.0
  0
SPLINE
  5
11A
330
1F
100
AcDbEntity
  8
0
  6
Continuous
 62
     7
370
    25
100
AcDbSpline
210
0.0
220
0.0
230
1.0
 70
     8
 71
     3
 72
     9
 73
     5
 74
     0
 42
0.00000001
 43
0.00000001
 40
0.0
 40
0.0
 40
0.0
 40
0.0
 40
0.4990227206128655
 40
1.0
 40
1.0
 40
1.0
 40
1.0
 10
6225.222108945806
 20
5114.649534369664
 30
0.0
 10
6225.166176050221
 20
5114.646082816664
 30
0.0
 10
6225.054091182588
 20
5114.639166191712
 30
0.0
 10
6224.933470357337
 20
5114.632980131102
 30
0.0
 10
6224.873042064465
 20
5114.629881055288
 30
0.0
  0
SPLINE
  5
11B
330
1F
100
AcDbEntity
  8
0
  6
Continuous
 62
     7
370
    25
100
AcDbSpline
210
0.0
220
0.0
230
1.0
 70
     8
 71
     3
 72
     9
 73
     5
 74
     0
 42
0.00000001
 43
0.00000001
 40
0.0
 40
0.0
 40
0.0
 40
0.0
 40
0.4927504619113035
 40
0.9999999999999999
 40
0.9999999999999999
 40
0.9999999999999999
 40
0.9999999999999999
 10
6226.512902170994
 20
5114.043802436422
 30
0.0
 10
6226.427521823392
 20
5114.034895036403
 30
0.0
 10
6226.254248829856
 20
5114.01681813804
 30
0.0
 10
6225.956090390357
 20
5113.996300341222
 30
0.0
 10
6225.804849659642
 20
5113.985892698264
 30
0.0
  0
LINE
  5
11C
330
1F
100
AcDbEntity
  8
0
  6
Continuous
 62
     7
370
    25
100
AcDbLine
 10
6224.2687553361
 20
5122.822182947
 30
0.0
 11
6224.0187553361
 21
5122.80642049
 31
0.0
  0
SPLINE
  5
11D
330
1F
100
AcDbEntity
  8
0
  6
Continuous
 62
     7
370
    25
100
AcDbSpline
210
0.0
220
0.0
230
1.0
 70
     8
 71
     3
 72
     9
 73
     5
 74
     0
 42
0.00000001
 43
0.00000001
 40
0.0
 40
0.0
 40
0.0
 40
0.0
 40
0.9069234881676557
 40
1.0
 40
1.0
 40
1.0
 40
1.0
 10
6224.2687553361
 20
5122.121564857322
 30
0.0
 10
6224.187939448804
 20
5122.11734303811
 30
0.0
 10
6224.098829520182
 20
5122.112687938458
 30
0.0
 10
6224.025573729565
 20
5122.107654835993
 30
0.0
 10
6224.018755336103
 20
5122.107186372372
 30
0.0
  0
LINE
  5
11E
330
1F
100
AcDbEntity
  8
0
  6
Continuous
 62
     7
370
    25
100
AcDbLine
 10
6224.2687553361
 20
5121.421701946
 30
0.0
 11
6224.0187553361
 21
5121.4064879269
 31
0.0
  0
SPLINE
  5
11F
330
1F
100
AcDbEntity
  8
0
  6
Continuous
 62
     7
370
    25
100
AcDbSpline
210
0.0
220
0.0
230
1.0
 70
     8
 71
     3
 72
     9
 73
     5
 74
     0
 42
0.00000001
 43
0.00000001
 40
0.0
 40
0.0
 40
0.0
 40
0.0
 40
0.398698855294025
 40
1.0
 40
1.0
 40
1.0
 40
1.0
 10
6224.2687553361
 20
5120.721892946666
 30
0.0
 10
6224.232606566377
 20
5120.719985467225
 30
0.0
 10
6224.141939715338
 20
5120.715201206081
 30
0.0
 10
6224.065012037092
 20
5120.709864504636
 30
0.0
 10
6224.018755336103
 20
5120.706655539949
 30
0.0
  0
LINE
  5
120
330
1F
100
AcDbEntity
  8
0
  6
Continuous
 62
     7
370
    25
100
AcDbLine
 10
6224.2687553361
 20
5120.0214964412
 30
0.0
 11
6224.0187553361
 21
5120.0068060376
 31
0.0
  0
LINE
  5
121
330
1F
100
AcDbEntity
  8
0
  6
Continuous
 62
     7
370
    25
100
AcDbLine
 10
6224.2687553361
 20
5119.3222398971
 30
0.0
 11
6224.0187553361
 21
5119.3064272304
 31
0.0
  0
SPLINE
  5
122
330
1F
100
AcDbEntity
  8
0
  6
Continuous
 62
     7
370
    25
100
AcDbSpline
210
0.0
220
0.0
230
1.0
 70
     8
 71
     3
 72
     9
 73
     5
 74
     0
 42
0.00000001
 43
0.00000001
 40
0.0
 40
0.0
 40
0.0
 40
0.0
 40
0.9553639096119212
 40
1.0
 40
1.0
 40
1.0
 40
1.0
 10
6224.2687553361
 20
5118.621548207981
 30
0.0
 10
6224.183815384678
 20
5118.617115038751
 30
0.0
 10
6224.094906906382
 20
5118.612474744947
 30
0.0
 10
6224.022009204513
 20
5118.60747269439
 30
0.0
 10
6224.018755336103
 20
5118.60724942241
 30
0.0
  0
LINE
  5
123
330
1F
100
AcDbEntity
  8
0
  6
Continuous
 62
     7
370
    25
100
AcDbLine
 10
6224.2687553361
 20
5117.921733271
 30
0.0
 11
6224.0187553361
 21
5117.906471523
 31
0.0
  0
SPLINE
  5
124
330
1F
100
AcDbEntity
  8
0
  6
Continuous
 62
     7
370
    25
100
AcDbSpline
210
0.0
220
0.0
230
1.0
 70
     8
 71
     3
 72
     9
 73
     5
 74
     0
 42
0.00000001
 43
0.00000001
 40
0.0
 40
0.0
 40
0.0
 40
0.0
 40
0.4418653239246068
 40
1.0
 40
1.0
 40
1.0
 40
1.0
 10
6224.2687553361
 20
5117.221852302037
 30
0.0
 10
6224.228731561489
 20
5117.219742923795
 30
0.0
 10
6224.13815243603
 20
5117.214969120266
 30
0.0
 10
6224.061524207571
 20
5117.20965568157
 30
0.0
 10
6224.018755336103
 20
5117.206690067184
 30
0.0
  0
LINE
  5
125
330
1F
100
AcDbEntity
  8
0
  6
Continuous
 62
     7
370
    25
100
AcDbLine
 10
6224.3044623373
 20
5116.523608849
 30
0.0
 11
6224.0574192651
 21
5116.5090469102
 31
0.0
  0
SPLINE
  5
126
330
1F
100
AcDbEntity
  8
0
  6
Continuous
 62
     7
370
    25
100
AcDbSpline
210
0.0
220
0.0
230
1.0
 70
     8
 71
     3
 72
     9
 73
     5
 74
     0
 42
0.00000001
 43
0.00000001
 40
0.0
 40
0.0
 40
0.0
 40
0.0
 40
0.661298012621413
 40
1.0
 40
1.0
 40
1.0
 40
1.0
 10
6224.444937806369
 20
5115.831811372141
 30
0.0
 10
6224.387335104807
 20
5115.828895874566
 30
0.0
 10
6224.300229593429
 20
5115.824487124624
 30
0.0
 10
6224.223703332034
 20
5115.819488957398
 30
0.0
 10
6224.197783735214
 20
5115.817796068225
 30
0.0
  0
SPLINE
  5
127
330
1F
100
AcDbEntity
  8
0
  6
Continuous
 62
     7
370
    25
100
AcDbSpline
210
0.0
220
0.0
230
1.0
 70
     8
 71
     3
 72
     9
 73
     5
 74
     0
 42
0.00000001
 43
0.00000001
 40
0.0
 40
0.0
 40
0.0
 40
0.0
 40
0.4767188971983919
 40
1.0
 40
1.0
 40
1.0
 40
1.0
 10
6224.812058578635
 20
5115.152095442462
 30
0.0
 10
6224.76602962766
 20
5115.149625133694
 30
0.0
 10
6224.669475974668
 20
5115.14444323555
 30
0.0
 10
6224.575236751747
 20
5115.139012885887
 30
0.0
 10
6224.525923147249
 20
5115.136171286527
 30
0.0
  0
SPLINE
  5
128
330
1F
100
AcDbEntity
  8
0
  6
Continuous
 62
     7
370
    25
100
AcDbSpline
210
0.0
220
0.0
230
1.0
 70
     8
 71
     3
 72
     9
 73
     5
 74
     0
 42
0.00000001
 43
0.00000001
 40
0.0
 40
0.0
 40
0.0
 40
0.0
 40
0.9537582235315883
 40
1.0
 40
1.0
 40
1.0
 40
1.0
 10
6225.4721832789
 20
5114.489554143424
 30
0.0
 10
6225.343812079258
 20
5114.481329896938
 30
0.0
 10
6225.209216962303
 20
5114.472706908132
 30
0.0
 10
6225.063247879988
 20
5114.464992925255
 30
0.0
 10
6225.056498010313
 20
5114.464636216983
 30
0.0
  0
SPLINE
  5
129
330
1F
100
AcDbEntity
  8
0
  6
Continuous
 62
     7
370
    25
100
AcDbSpline
210
0.0
220
0.0
230
1.0
 70
     8
 71
     3
 72
    10
 73
     6
 74
     0
 42
0.00000001
 43
0.00000001
 40
0.0
 40
0.0
 40
0.0
 40
0.0
 40
0.2771602991432283
 40
0.7426629666923364
 40
1.0
 40
1.0
 40
1.0
 40
1.0
 10
6226.741349761971
 20
5113.924506042528
 30
0.0
 10
6226.743612116324
 20
5113.916609502577
 30
0.0
 10
6226.749674192315
 20
5113.89545038345
 30
0.0
 10
6226.567672346671
 20
5113.870238159067
 30
0.0
 10
6226.328439165794
 20
5113.850956547543
 30
0.0
 10
6226.243270134593
 20
5113.84409213113
 30
0.0
  0
SPLINE
  5
12A
330
1F
100
AcDbEntity
  8
0
  6
Continuous
 62
     7
370
    25
100
AcDbSpline
210
0.0
220
0.0
230
1.0
 70
     8
 71
     3
 72
     9
 73
     5
 74
     0
 42
0.00000001
 43
0.00000001
 40
0.0
 40
0.0
 40
0.0
 40
0.0
 40
0.2637340588847892
 40
1.0
 40
1.0
 40
1.0
 40
1.0
 10
6224.2687553361
 20
5122.596275733767
 30
0.0
 10
6224.244097351397
 20
5122.5946120422
 30
0.0
 10
6224.150601711099
 20
5122.588303825605
 30
0.0
 10
6224.074664971297
 20
5122.581433504333
 30
0.0
 10
6224.018755336103
 20
5122.576375120776
 30
0.0
  0
SPLINE
  5
12B
330
1F
100
AcDbEntity
  8
0
  6
Continuous
 62
     7
370
    25
100
AcDbSpline
210
0.0
220
0.0
230
1.0
 70
     8
 71
     3
 72
     9
 73
     5
 74
     0
 42
0.00000001
 43
0.00000001
 40
0.0
 40
0.0
 40
0.0
 40
0.0
 40
0.4249393532640023
 40
1.0
 40
1.0
 40
1.0
 40
1.0
 10
6224.2687553361
 20
5121.896080991036
 30
0.0
 10
6224.229178771522
 20
5121.89341049638
 30
0.0
 10
6224.136044152961
 20
5121.887126082767
 30
0.0
 10
6224.061577930279
 20
5121.880380598875
 30
0.0
 10
6224.018755336103
 20
5121.876501536544
 30
0.0
  0
SPLINE
  5
12C
330
1F
100
AcDbEntity
  8
0
  6
Continuous
 62
     7
370
    25
100
AcDbSpline
210
0.0
220
0.0
230
1.0
 70
     8
 71
     3
 72
     9
 73
     5
 74
     0
 42
0.00000001
 43
0.00000001
 40
0.0
 40
0.0
 40
0.0
 40
0.0
 40
0.5922063548224937
 40
1.0
 40
1.0
 40
1.0
 40
1.0
 10
6224.2687553361
 20
5121.195928633702
 30
0.0
 10
6224.21393777598
 20
5121.192230570178
 30
0.0
 10
6224.121372811631
 20
5121.185986017927
 30
0.0
 10
6224.048480398827
 20
5121.179381626746
 30
0.0
 10
6224.018755336103
 20
5121.176688397993
 30
0.0
  0
SPLINE
  5
12D
330
1F
100
AcDbEntity
  8
0
  6
Continuous
 62
     7
370
    25
100
AcDbSpline
210
0.0
220
0.0
230
1.0
 70
     8
 71
     3
 72
     9
 73
     5
 74
     0
 42
0.00000001
 43
0.00000001
 40
0.0
 40
0.0
 40
0.0
 40
0.0
 40
0.7678234820323686
 40
1.0
 40
1.0
 40
1.0
 40
1.0
 10
6224.2687553361
 20
5120.495819854576
 30
0.0
 10
6224.198288617671
 20
5120.491069374216
 30
0.0
 10
6224.106513984469
 20
5120.4848824309
 30
0.0
 10
6224.035291519922
 20
5120.478435964417
 30
0.0
 10
6224.018755336103
 20
5120.476939246276
 30
0.0
  0
SPLINE
  5
12E
330
1F
100
AcDbEntity
  8
0
  6
Continuous
 62
     7
370
    25
100
AcDbSpline
210
0.0
220
0.0
230
1.0
 70
     8
 71
     3
 72
     9
 73
     5
 74
     0
 42
0.00000001
 43
0.00000001
 40
0.0
 40
0.0
 40
0.0
 40
0.0
 40
0.9546091180974813
 40
1.0
 40
1.0
 40
1.0
 40
1.0
 10
6224.2687553361
 20
5119.795755992322
 30
0.0
 10
6224.182123562549
 20
5119.789923556314
 30
0.0
 10
6224.091372519102
 20
5119.78381379275
 30
0.0
 10
6224.02190837487
 20
5119.777542705544
 30
0.0
 10
6224.018755336103
 20
5119.777258055365
 30
0.0
  0
LINE
  5
12F
330
1F
100
AcDbEntity
  8
0
  6
Continuous
 62
     7
370
    25
100
AcDbLine
 10
6224.2687553361
 20
5119.0957385445
 30
0.0
 11
6224.0187553361
 21
5119.0771202761
 31
0.0
  0
LINE
  5
130
330
1F
100
AcDbEntity
  8
0
  6
Continuous
 62
     7
370
    25
100
AcDbLine
 10
6224.2687553361
 20
5118.3957691826
 30
0.0
 11
6224.0187553361
 21
5118.3768681297
 31
0.0
  0
LINE
  5
131
330
1F
100
AcDbEntity
  8
0
  6
Continuous
 62
     7
370
    25
100
AcDbLine
 10
6224.2687553361
 20
5117.6958497685
 30
0.0
 11
6224.0187553361
 21
5117.6766593561
 31
0.0
  0
LINE
  5
132
330
1F
100
AcDbEntity
  8
0
  6
Continuous
 62
     7
370
    25
100
AcDbLine
 10
6224.2687553361
 20
5116.9959823743
 30
0.0
 11
6224.1027753076
 21
5116.9830446064
 31
0.0
  0
LINE
  5
133
330
1F
100
AcDbEntity
  8
0
  6
Continuous
 62
     7
370
    25
100
AcDbLine
 10
6224.3493503306
 20
5116.3025496084
 30
0.0
 11
6224.103305536
 21
5116.2830714665
 31
0.0
  0
SPLINE
  5
134
330
1F
100
AcDbEntity
  8
0
  6
Continuous
 62
     7
370
    25
100
AcDbSpline
210
0.0
220
0.0
230
1.0
 70
     8
 71
     3
 72
     9
 73
     5
 74
     0
 42
0.00000001
 43
0.00000001
 40
0.0
 40
0.0
 40
0.0
 40
0.0
 40
0.7160622733494244
 40
1.0
 40
1.0
 40
1.0
 40
1.0
 10
6224.496607186577
 20
5115.612197010854
 30
0.0
 10
6224.43207511667
 20
5115.608156975976
 30
0.0
 10
6224.341954365571
 20
5115.602514959871
 30
0.0
 10
6224.265004465754
 20
5115.596159132768
 30
0.0
 10
6224.243155486134
 20
5115.594354473669
 30
0.0
  0
SPLINE
  5
135
330
1F
100
AcDbEntity
  8
0
  6
Continuous
 62
     7
370
    25
100
AcDbSpline
210
0.0
220
0.0
230
1.0
 70
     8
 71
     3
 72
     9
 73
     5
 74
     0
 42
0.00000001
 43
0.00000001
 40
0.0
 40
0.0
 40
0.0
 40
0.0
 40
0.4875246705415374
 40
1.0
 40
1.0
 40
1.0
 40
1.0
 10
6224.955159554115
 20
5114.943375541665
 30
0.0
 10
6224.90943892636
 20
5114.940159724161
 30
0.0
 10
6224.815657769186
 20
5114.933563509247
 30
0.0
 10
6224.720318825395
 20
5114.927173371104
 30
0.0
 10
6224.671459968765
 20
5114.923898582953
 30
0.0
  0
LINE
  5
136
330
1F
100
AcDbEntity
  8
0
  6
Continuous
 62
     7
370
    25
100
AcDbLine
 10
6225.7603383287
 20
5114.3052125139
 30
0.0
 11
6225.3581331391
 21
5114.2716709672
 31
0.0
  0
LINE
  5
137
330
1F
100
AcDbEntity
  8
0
  6
Continuous
 62
     7
370
    25
100
AcDbLine
 10
6323.7687553361
 20
5127.1994545927
 30
0.0
 11
6324.0187553361
 21
5127.1994545927
 31
0.0
  0
LINE
  5
138
330
1F
100
AcDbEntity
  8
0
  6
Continuous
 62
     7
370
    25
100
AcDbLine
 10
6323.7687553361
 20
5123.1994545927
 30
0.0
 11
6324.0187553361
 21
5123.1994545927
 31
0.0
  0
SPLINE
  5
139
330
1F
100
AcDbEntity
  8
0
  6
Continuous
 62
     7
370
    25
100
AcDbSpline
210
0.0
220
0.0
230
1.0
 70
     8
 71
     3
 72
     9
 73
     5
 74
     0
 42
0.00000001
 43
0.00000001
 40
0.0
 40
0.0
 40
0.0
 40
0.0
 40
0.8933156759697478
 40
1.0
 40
1.0
 40
1.0
 40
1.0
 10
6324.018755336103
 20
5122.597603190342
 30
0.0
 10
6323.949704482269
 20
5122.591369012196
 30
0.0
 10
6323.872407222532
 20
5122.58439031663
 30
0.0
 10
6323.778747373755
 20
5122.578071025405
 30
0.0
 10
6323.7687553361
 20
5122.577396856092
 30
0.0
  0
LINE
  5
13A
330
1F
100
AcDbEntity
  8
0
  6
Continuous
 62
     7
370
    25
100
AcDbLine
 10
6324.0187553361
 20
5121.8976178556
 30
0.0
 11
6323.7687553361
 21
5121.8773109583
 31
0.0
  0
LINE
  5
13B
330
1F
100
AcDbEntity
  8
0
  6
Continuous
 62
     7
370
    25
100
AcDbLine
 10
6324.0187553361
 20
5121.1975805801
 30
0.0
 11
6323.7687553361
 21
5121.1775922375
 31
0.0
  0
LINE
  5
13C
330
1F
100
AcDbEntity
  8
0
  6
Continuous
 62
     7
370
    25
100
AcDbLine
 10
6324.0187553361
 20
5120.4974936145
 30
0.0
 11
6323.7687553361
 21
5120.4778148702
 31
0.0
  0
LINE
  5
13D
330
1F
100
AcDbEntity
  8
0
  6
Continuous
 62
     7
370
    25
100
AcDbLine
 10
6324.0187553361
 20
5119.7973589689
 30
0.0
 11
6323.7687553361
 21
5119.7779815944
 31
0.0
  0
LINE
  5
13E
330
1F
100
AcDbEntity
  8
0
  6
Continuous
 62
     7
370
    25
100
AcDbLine
 10
6324.0187553361
 20
5119.097178437
 30
0.0
 11
6323.7687553361
 21
5119.0780948733
 31
0.0
  0
LINE
  5
13F
330
1F
100
AcDbEntity
  8
0
  6
Continuous
 62
     7
370
    25
100
AcDbLine
 10
6324.0187553361
 20
5118.3969536169
 30
0.0
 11
6323.7687553361
 21
5118.3781569226
 31
0.0
  0
LINE
  5
140
330
1F
100
AcDbEntity
  8
0
  6
Continuous
 62
     7
370
    25
100
AcDbLine
 10
6324.0187553361
 20
5117.6966859297
 30
0.0
 11
6323.7687553361
 21
5117.6781697347
 31
0.0
  0
SPLINE
  5
141
330
1F
100
AcDbEntity
  8
0
  6
Continuous
 62
     7
370
    25
100
AcDbSpline
210
0.0
220
0.0
230
1.0
 70
     8
 71
     3
 72
     9
 73
     5
 74
     0
 42
0.00000001
 43
0.00000001
 40
0.0
 40
0.0
 40
0.0
 40
0.0
 40
0.1153211801236107
 40
1.0
 40
1.0
 40
1.0
 40
1.0
 10
6324.018755336103
 20
5116.996776080632
 30
0.0
 10
6324.010669241216
 20
5116.996045243718
 30
0.0
 10
6323.940551203244
 20
5116.989707839669
 30
0.0
 10
6323.849397280713
 20
5116.983567408695
 30
0.0
 10
6323.7687553361
 20
5116.978135099468
 30
0.0
  0
LINE
  5
142
330
1F
100
AcDbEntity
  8
0
  6
Continuous
 62
     7
370
    25
100
AcDbLine
 10
6323.9424884959
 20
5116.2905441083
 30
0.0
 11
6323.6890908991
 21
5116.2723276336
 31
0.0
  0
LINE
  5
143
330
1F
100
AcDbEntity
  8
0
  6
Continuous
 62
     7
370
    25
100
AcDbLine
 10
6323.7924916403
 20
5115.5796110123
 30
0.0
 11
6323.4878425556
 21
5115.5580323483
 31
0.0
  0
SPLINE
  5
144
330
1F
100
AcDbEntity
  8
0
  6
Continuous
 62
     7
370
    25
100
AcDbSpline
210
0.0
220
0.0
230
1.0
 70
     8
 71
     3
 72
     9
 73
     5
 74
     0
 42
0.00000001
 43
0.00000001
 40
0.0
 40
0.0
 40
0.0
 40
0.0
 40
0.019851737412256
 40
1.0
 40
1.0
 40
1.0
 40
1.0
 10
6323.323622994506
 20
5114.846695347176
 30
0.0
 10
6323.32163314851
 20
5114.84655642901
 30
0.0
 10
6323.221397791088
 20
5114.839558645189
 30
0.0
 10
6323.119500871689
 20
5114.832780658869
 30
0.0
 10
6323.019626783176
 20
5114.826137227355
 30
0.0
  0
SPLINE
  5
145
330
1F
100
AcDbEntity
  8
0
  6
Continuous
 62
     7
370
    25
100
AcDbSpline
210
0.0
220
0.0
230
1.0
 70
     8
 71
     3
 72
    11
 73
     7
 74
     0
 42
0.00000001
 43
0.00000001
 40
0.0
 40
0.0
 40
0.0
 40
0.0
 40
0.1444782988944958
 40
0.5511999568727406
 40
0.9580506063075335
 40
1.0
 40
1.0
 40
1.0
 40
1.0
 10
6322.395270189524
 20
5114.078571615794
 30
0.0
 10
6322.336060750095
 20
5114.07376711006
 30
0.0
 10
6322.110170490389
 20
5114.055437413668
 30
0.0
 10
6321.853609392637
 20
5114.026392632611
 30
0.0
 10
6321.668607098053
 20
5114.000681435334
 30
0.0
 10
6321.672423107329
 20
5113.985829726788
 30
0.0
 10
6321.672779790171
 20
5113.984441535816
 30
0.0
  0
LINE
  5
146
330
1F
100
AcDbEntity
  8
0
  6
Continuous
 62
     7
370
    25
100
AcDbLine
 10
6324.0187553361
 20
5122.3672934732
 30
0.0
 11
6323.7687553361
 21
5122.3523269136
 31
0.0
  0
LINE
  5
147
330
1F
100
AcDbEntity
  8
0
  6
Continuous
 62
     7
370
    25
100
AcDbLine
 10
6324.0187553361
 20
5121.6672934732
 30
0.0
 11
6323.7687553361
 21
5121.6523269136
 31
0.0
  0
LINE
  5
148
330
1F
100
AcDbEntity
  8
0
  6
Continuous
 62
     7
370
    25
100
AcDbLine
 10
6324.0187553361
 20
5120.9672934732
 30
0.0
 11
6323.7687553361
 21
5120.9523269136
 31
0.0
  0
LINE
  5
149
330
1F
100
AcDbEntity
  8
0
  6
Continuous
 62
     7
370
    25
100
AcDbLine
 10
6324.0187553361
 20
5120.2672934732
 30
0.0
 11
6323.7687553361
 21
5120.2523269136
 31
0.0
  0
LINE
  5
14A
330
1F
100
AcDbEntity
  8
0
  6
Continuous
 62
     7
370
    25
100
AcDbLine
 10
6324.0187553361
 20
5119.5672934732
 30
0.0
 11
6323.7687553361
 21
5119.5523269136
 31
0.0
  0
LINE
  5
14B
330
1F
100
AcDbEntity
  8
0
  6
Continuous
 62
     7
370
    25
100
AcDbLine
 10
6324.0187553361
 20
5118.8672934732
 30
0.0
 11
6323.7687553361
 21
5118.8523269136
 31
0.0
  0
LINE
  5
14C
330
1F
100
AcDbEntity
  8
0
  6
Continuous
 62
     7
370
    25
100
AcDbLine
 10
6324.0187553361
 20
5118.1672934732
 30
0.0
 11
6323.7687553361
 21
5118.1523269136
 31
0.0
  0
LINE
  5
14D
330
1F
100
AcDbEntity
  8
0
  6
Continuous
 62
     7
370
    25
100
AcDbLine
 10
6324.0187553361
 20
5117.4672934732
 30
0.0
 11
6323.7687553361
 21
5117.4523269136
 31
0.0
  0
LINE
  5
14E
330
1F
100
AcDbEntity
  8
0
  6
Continuous
 62
     7
370
    25
100
AcDbLine
 10
6323.9939856022
 20
5116.7658106024
 30
0.0
 11
6323.7687553361
 21
5116.7523269136
 31
0.0
  0
LINE
  5
14F
330
1F
100
AcDbEntity
  8
0
  6
Continuous
 62
     7
370
    25
100
AcDbLine
 10
6323.8995181259
 20
5116.0601551899
 30
0.0
 11
6323.6466951576
 21
5116.0450196298
 31
0.0
  0
SPLINE
  5
150
330
1F
100
AcDbEntity
  8
0
  6
Continuous
 62
     7
370
    25
100
AcDbSpline
210
0.0
220
0.0
230
1.0
 70
     8
 71
     3
 72
     9
 73
     5
 74
     0
 42
0.00000001
 43
0.00000001
 40
0.0
 40
0.0
 40
0.0
 40
0.0
 40
0.3091084767133859
 40
1.0
 40
1.0
 40
1.0
 40
1.0
 10
6323.642245935334
 20
5115.34475327164
 30
0.0
 10
6323.612458110291
 20
5115.342936151505
 30
0.0
 10
6323.516091212305
 20
5115.33705756754
 30
0.0
 10
6323.412420589161
 20
5115.331804085221
 30
0.0
 10
6323.340795434416
 20
5115.328174498819
 30
0.0
  0
SPLINE
  5
151
330
1F
100
AcDbEntity
  8
0
  6
Continuous
 62
     7
370
    25
100
AcDbSpline
210
0.0
220
0.0
230
1.0
 70
     8
 71
     3
 72
     9
 73
     5
 74
     0
 42
0.00000001
 43
0.00000001
 40
0.0
 40
0.0
 40
0.0
 40
0.0
 40
0.5675422392742858
 40
1.0
 40
1.0
 40
1.0
 40
1.0
 10
6323.178328031492
 20
5114.619576397344
 30
0.0
 10
6323.086319551244
 20
5114.614906219185
 30
0.0
 10
6322.924202137101
 20
5114.606677442832
 30
0.0
 10
6322.776631637307
 20
5114.597364191171
 30
0.0
 10
6322.712813629418
 20
5114.593336603213
 30
0.0
  0
SPLINE
  5
152
330
1F
100
AcDbEntity
  8
0
  6
Continuous
 62
     7
370
    25
100
AcDbSpline
210
0.0
220
0.0
230
1.0
 70
     8
 71
     3
 72
     9
 73
     5
 74
     0
 42
0.00000001
 43
0.00000001
 40
0.0
 40
0.0
 40
0.0
 40
0.0
 40
0.3077625042113631
 40
0.9999999999999999
 40
0.9999999999999999
 40
0.9999999999999999
 40
0.9999999999999999
 10
6321.547169094109
 20
5113.806753582634
 30
0.0
 10
6321.500608755799
 20
5113.802488284357
 30
0.0
 10
6321.349322170619
 20
5113.788629226745
 30
0.0
 10
6321.318854027996
 20
5113.773201713891
 30
0.0
 10
6321.297762837247
 20
5113.762522211025
 30
0.0
  0
LINE
  5
153
330
1F
100
AcDbEntity
  8
0
  6
Continuous
 62
     7
370
    25
100
AcDbLine
 10
6324.0187553361
 20
5122.8920663194
 30
0.0
 11
6323.7687553361
 21
5122.8774190117
 31
0.0
  0
SPLINE
  5
154
330
1F
100
AcDbEntity
  8
0
  6
Continuous
 62
     7
370
    25
100
AcDbSpline
210
0.0
220
0.0
230
1.0
 70
     8
 71
     3
 72
     9
 73
     5
 74
     0
 42
0.00000001
 43
0.00000001
 40
0.0
 40
0.0
 40
0.0
 40
0.0
 40
0.641659546285913
 40
0.9999999999999999
 40
0.9999999999999999
 40
0.9999999999999999
 40
0.9999999999999999
 10
6324.018755336103
 20
5122.192284112137
 30
0.0
 10
6323.96921736607
 20
5122.188846187551
 30
0.0
 10
6323.892014478153
 20
5122.18348832355
 30
0.0
 10
6323.80127202716
 20
5122.178694317552
 30
0.0
 10
6323.7687553361
 20
5122.176976431268
 30
0.0
  0
LINE
  5
155
330
1F
100
AcDbEntity
  8
0
  6
Continuous
 62
     7
370
    25
100
AcDbLine
 10
6324.0187553361
 20
5121.4924048782
 30
0.0
 11
6323.7687553361
 21
5121.477235443
 31
0.0
  0
SPLINE
  5
156
330
1F
100
AcDbEntity
  8
0
  6
Continuous
 62
     7
370
    25
100
AcDbSpline
210
0.0
220
0.0
230
1.0
 70
     8
 71
     3
 72
     9
 73
     5
 74
     0
 42
0.00000001
 43
0.00000001
 40
0.0
 40
0.0
 40
0.0
 40
0.0
 40
0.1380003749327668
 40
1.0
 40
1.0
 40
1.0
 40
1.0
 10
6324.018755336103
 20
5120.791779592635
 30
0.0
 10
6324.008600301818
 20
5120.791081089076
 30
0.0
 10
6323.935013296789
 20
5120.78601948284
 30
0.0
 10
6323.845723289181
 20
5120.78135142451
 30
0.0
 10
6323.7687553361
 20
5120.777327559978
 30
0.0
  0
LINE
  5
157
330
1F
100
AcDbEntity
  8
0
  6
Continuous
 62
     7
370
    25
100
AcDbLine
 10
6324.0187553361
 20
5120.0924936719
 30
0.0
 11
6323.7687553361
 21
5120.0767780176
 31
0.0
  0
LINE
  5
158
330
1F
100
AcDbEntity
  8
0
  6
Continuous
 62
     7
370
    25
100
AcDbLine
 10
6324.0187553361
 20
5119.3920245489
 30
0.0
 11
6323.7687553361
 21
5119.3774227202
 31
0.0
  0
SPLINE
  5
159
330
1F
100
AcDbEntity
  8
0
  6
Continuous
 62
     7
370
    25
100
AcDbSpline
210
0.0
220
0.0
230
1.0
 70
     8
 71
     3
 72
     9
 73
     5
 74
     0
 42
0.00000001
 43
0.00000001
 40
0.0
 40
0.0
 40
0.0
 40
0.0
 40
0.6841606903316216
 40
1.0
 40
1.0
 40
1.0
 40
1.0
 10
6324.018755336103
 20
5118.692313959647
 30
0.0
 10
6323.9657392759
 20
5118.688633610465
 30
0.0
 10
6323.888248620631
 20
5118.683254246766
 30
0.0
 10
6323.797437163903
 20
5118.678449865099
 30
0.0
 10
6323.7687553361
 20
5118.676932452509
 30
0.0
  0
LINE
  5
15A
330
1F
100
AcDbEntity
  8
0
  6
Continuous
 62
     7
370
    25
100
AcDbLine
 10
6324.0187553361
 20
5117.9923846471
 30
0.0
 11
6323.7687553361
 21
5117.9772625844
 31
0.0
  0
SPLINE
  5
15B
330
1F
100
AcDbEntity
  8
0
  6
Continuous
 62
     7
370
    25
100
AcDbSpline
210
0.0
220
0.0
230
1.0
 70
     8
 71
     3
 72
     9
 73
     5
 74
     0
 42
0.00000001
 43
0.00000001
 40
0.0
 40
0.0
 40
0.0
 40
0.0
 40
0.1853703336409155
 40
1.0
 40
1.0
 40
1.0
 40
1.0
 10
6324.018755336103
 20
5117.291837653661
 30
0.0
 10
6324.005049718852
 20
5117.290893839076
 30
0.0
 10
6323.931113307442
 20
5117.285802330818
 30
0.0
 10
6323.841641623852
 20
5117.281120779644
 30
0.0
 10
6323.7687553361
 20
5117.277307049173
 30
0.0
  0
LINE
  5
15C
330
1F
100
AcDbEntity
  8
0
  6
Continuous
 62
     7
370
    25
100
AcDbLine
 10
6323.9985703909
 20
5116.5912314685
 30
0.0
 11
6323.8300639917
 21
5116.5806723091
 31
0.0
  0
LINE
  5
15D
330
1F
100
AcDbEntity
  8
0
  6
Continuous
 62
     7
370
    25
100
AcDbLine
 10
6323.8664980485
 20
5115.8831155244
 30
0.0
 11
6323.6137533029
 21
5115.8683993613
 31
0.0
  0
LINE
  5
15E
330
1F
100
AcDbEntity
  8
0
  6
Continuous
 62
     7
370
    25
100
AcDbLine
 10
6323.5264417589
 20
5115.1637330738
 30
0.0
 11
6323.2251335871
 21
5115.147376784
 31
0.0
  0
SPLINE
  5
15F
330
1F
100
AcDbEntity
  8
0
  6
Continuous
 62
     7
370
    25
100
AcDbSpline
210
0.0
220
0.0
230
1.0
 70
     8
 71
     3
 72
     9
 73
     5
 74
     0
 42
0.00000001
 43
0.00000001
 40
0.0
 40
0.0
 40
0.0
 40
0.0
 40
0.008254119546333
 40
1.0
 40
1.0
 40
1.0
 40
1.0
 10
6322.90824678903
 20
5114.430274790753
 30
0.0
 10
6322.906852520998
 20
5114.430200930152
 30
0.0
 10
6322.737934682475
 20
5114.421252598209
 30
0.0
 10
6322.584604399341
 20
5114.411173354459
 30
0.0
 10
6322.432539722692
 20
5114.401177305989
 30
0.0
  0
SPLINE
  5
160
330
1F
100
AcDbEntity
  8
0
  6
Continuous
 62
     7
370
    25
100
AcDbSpline
210
0.0
220
0.0
230
1.0
 70
     8
 71
     3
 72
     9
 73
     5
 74
     0
 42
0.00000001
 43
0.00000001
 40
0.0
 40
0.0
 40
0.0
 40
0.0
 40
0.8933192216708724
 40
1.0
 40
1.0
 40
1.0
 40
1.0
 10
6324.018755336103
 20
5122.685103191706
 30
0.0
 10
6323.94970418297
 20
5122.678868986659
 30
0.0
 10
6323.872406894991
 20
5122.671890288681
 30
0.0
 10
6323.778747042104
 20
5122.665570997191
 30
0.0
 10
6323.7687553361
 20
5122.664896850257
 30
0.0
  0
LINE
  5
161
330
1F
100
AcDbEntity
  8
0
  6
Continuous
 62
     7
370
    25
100
AcDbLine
 10
6324.0187553361
 20
5121.9851178552
 30
0.0
 11
6323.7687553361
 21
5121.9648109814
 31
0.0
  0
LINE
  5
162
330
1F
100
AcDbEntity
  8
0
  6
Continuous
 62
     7
370
    25
100
AcDbLine
 10
6324.0187553361
 20
5121.2850805728
 30
0.0
 11
6323.7687553361
 21
5121.2650922692
 31
0.0
  0
LINE
  5
163
330
1F
100
AcDbEntity
  8
0
  6
Continuous
 62
     7
370
    25
100
AcDbLine
 10
6324.0187553361
 20
5120.5849935955
 30
0.0
 11
6323.7687553361
 21
5120.5653149047
 31
0.0
  0
LINE
  5
164
330
1F
100
AcDbEntity
  8
0
  6
Continuous
 62
     7
370
    25
100
AcDbLine
 10
6324.0187553361
 20
5119.8848589336
 30
0.0
 11
6323.7687553361
 21
5119.8654816265
 31
0.0
  0
LINE
  5
165
330
1F
100
AcDbEntity
  8
0
  6
Continuous
 62
     7
370
    25
100
AcDbLine
 10
6324.0187553361
 20
5119.1846783811
 30
0.0
 11
6323.7687553361
 21
5119.165594898
 31
0.0
  0
LINE
  5
166
330
1F
100
AcDbEntity
  8
0
  6
Continuous
 62
     7
370
    25
100
AcDbLine
 10
6324.0187553361
 20
5118.4844535363
 30
0.0
 11
6323.7687553361
 21
5118.4656569352
 31
0.0
  0
LINE
  5
167
330
1F
100
AcDbEntity
  8
0
  6
Continuous
 62
     7
370
    25
100
AcDbLine
 10
6324.0187553361
 20
5117.7841858204
 30
0.0
 11
6323.7687553361
 21
5117.7656697309
 31
0.0
  0
SPLINE
  5
168
330
1F
100
AcDbEntity
  8
0
  6
Continuous
 62
     7
370
    25
100
AcDbSpline
210
0.0
220
0.0
230
1.0
 70
     8
 71
     3
 72
     9
 73
     5
 74
     0
 42
0.00000001
 43
0.00000001
 40
0.0
 40
0.0
 40
0.0
 40
0.0
 40
0.1154021735809562
 40
1.0
 40
1.0
 40
1.0
 40
1.0
 10
6324.018755336103
 20
5117.084276221713
 30
0.0
 10
6324.010663474623
 20
5117.0835448627
 30
0.0
 10
6323.940544678503
 20
5117.07720738231
 30
0.0
 10
6323.849390300633
 20
5117.071066917115
 30
0.0
 10
6323.7687553361
 20
5117.06563507495
 30
0.0
  0
SPLINE
  5
169
330
1F
100
AcDbEntity
  8
0
  6
Continuous
 62
     7
370
    25
100
AcDbSpline
210
0.0
220
0.0
230
1.0
 70
     8
 71
     3
 72
     9
 73
     5
 74
     0
 42
0.00000001
 43
0.00000001
 40
0.0
 40
0.0
 40
0.0
 40
0.0
 40
0.0290771015716244
 40
1.0
 40
1.0
 40
1.0
 40
1.0
 10
6323.959048793691
 20
5116.379333408591
 30
0.0
 10
6323.956968272424
 20
5116.379150381794
 30
0.0
 10
6323.885416392937
 20
5116.372855848017
 30
0.0
 10
6323.794198275277
 20
5116.366848980615
 30
0.0
 10
6323.705632516089
 20
5116.361016775506
 30
0.0
  0
LINE
  5
16A
330
1F
100
AcDbEntity
  8
0
  6
Continuous
 62
     7
370
    25
100
AcDbLine
 10
6323.826661947
 20
5115.6695312262
 30
0.0
 11
6323.5464758663
 21
5115.6496854633
 31
0.0
  0
SPLINE
  5
16B
330
1F
100
AcDbEntity
  8
0
  6
Continuous
 62
     7
370
    25
100
AcDbSpline
210
0.0
220
0.0
230
1.0
 70
     8
 71
     3
 72
     9
 73
     5
 74
     0
 42
0.00000001
 43
0.00000001
 40
0.0
 40
0.0
 40
0.0
 40
0.0
 40
0.2142462526454925
 40
1.0
 40
1.0
 40
1.0
 40
1.0
 10
6323.382215529256
 20
5114.938284722917
 30
0.0
 10
6323.360711628995
 20
5114.936778802288
 30
0.0
 10
6323.260341610866
 20
5114.929749878283
 30
0.0
 10
6323.158306878337
 20
5114.922941176332
 30
0.0
 10
6323.078132704894
 20
5114.917591213259
 30
0.0
  0
CIRCLE
  5
16C
330
1F
100
AcDbEntity
  8
0
  6
Continuous
 62
     7
370
    25
100
AcDbCircle
 10
6326.5187553361
 20
5091.1994545927
 30
0.0
 40
5.199999999998909
  0
CIRCLE
  5
16D
330
1F
100
AcDbEntity
  8
0
  6
Continuous
 62
     7
370
    25
100
AcDbCircle
 10
6221.5187553361
 20
5091.1994545927
 30
0.0
 40
5.200000000000728
  0
CIRCLE
  5
16E
330
1F
100
AcDbEntity
  8
0
  6
Continuous
 62
     7
370
    25
100
AcDbCircle
 10
6326.5187553361
 20
5336.1994545927
 30
0.0
 40
5.199999999998909
  0
ARC
  5
16F
330
1F
100
AcDbEntity
  8
0
  6
Continuous
 62
     7
370
    25
100
AcDbCircle
 10
6343.5187553361
 20
5074.1994545927
 30
0.0
 40
3.0
100
AcDbArc
 50
270.0
 51
0.0
  0
LINE
  5
170
330
1F
100
AcDbEntity
  8
0
  6
Continuous
 62
     7
370
    25
100
AcDbLine
 10
6343.5187553361
 20
5071.1994545927
 30
0.0
 11
6343.5187553361
 21
5072.1994545927
 31
0.0
  0
ARC
  5
171
330
1F
100
AcDbEntity
  8
0
  6
Continuous
 62
     7
370
    25
100
AcDbCircle
 10
6343.5187553361
 20
5074.1994545927
 30
0.0
 40
2.000000000000909
100
AcDbArc
 50
270.0
 51
0.0
  0
LINE
  5
172
330
1F
100
AcDbEntity
  8
0
  6
Continuous
 62
     7
370
    25
100
AcDbLine
 10
6346.5187553361
 20
5074.1994545927
 30
0.0
 11
6345.5187553361
 21
5074.1994545927
 31
0.0
  0
ARC
  5
173
330
1F
100
AcDbEntity
  8
0
  6
Continuous
 62
     7
370
    25
100
AcDbCircle
 10
6204.5187553361
 20
5353.1994545927
 30
0.0
 40
2.000000000000909
100
AcDbArc
 50
90.0
 51
180.0
  0
LINE
  5
174
330
1F
100
AcDbEntity
  8
0
  6
Continuous
 62
     7
370
    25
100
AcDbLine
 10
6202.5187553361
 20
5353.1994545927
 30
0.0
 11
6201.5187553361
 21
5353.1994545927
 31
0.0
  0
ARC
  5
175
330
1F
100
AcDbEntity
  8
0
  6
Continuous
 62
     7
370
    25
100
AcDbCircle
 10
6204.5187553361
 20
5353.1994545927
 30
0.0
 40
3.000000000000909
100
AcDbArc
 50
90.0
 51
180.0
  0
LINE
  5
176
330
1F
100
AcDbEntity
  8
0
  6
Continuous
 62
     7
370
    25
100
AcDbLine
 10
6204.5187553361
 20
5355.1994545927
 30
0.0
 11
6204.5187553361
 21
5356.1994545927
 31
0.0
  0
LINE
  5
177
330
1F
100
AcDbEntity
  8
0
  6
Continuous
 62
     7
370
    25
100
AcDbLine
 10
6292.8713149071
 20
5283.6994545927
 30
0.0
 11
6262.0187553361
 21
5283.6994545927
 31
0.0
  0
LINE
  5
178
330
1F
100
AcDbEntity
  8
0
  6
Continuous
 62
     7
370
    25
100
AcDbLine
 10
6262.0187553361
 20
5283.6994545927
 30
0.0
 11
6262.0187553361
 21
5261.6994545927
 31
0.0
  0
LINE
  5
179
330
1F
100
AcDbEntity
  8
0
  6
Continuous
 62
     7
370
    25
100
AcDbLine
 10
6262.0187553361
 20
5261.6994545927
 30
0.0
 11
6292.8713149071
 21
5261.6994545927
 31
0.0
  0
LINE
  5
17A
330
1F
100
AcDbEntity
  8
0
  6
Continuous
 62
     7
370
    25
100
AcDbLine
 10
6292.540995604
 20
5237.8598091153
 30
0.0
 11
6295.0815361446
 21
5214.4975392393
 31
0.0
  0
LINE
  5
17B
330
1F
100
AcDbEntity
  8
0
  6
Continuous
 62
     7
370
    25
100
AcDbLine
 10
6227.0187553361
 20
5113.6994545927
 30
0.0
 11
6321.0187553361
 21
5113.6994545927
 31
0.0
  0
LINE
  5
17C
330
1F
100
AcDbEntity
  8
0
  6
Continuous
 62
     7
370
    25
100
AcDbLine
 10
6321.0187553361
 20
5188.6994545927
 30
0.0
 11
6227.0187553361
 21
5188.6994545927
 31
0.0
  0
ARC
  5
17D
330
1F
100
AcDbEntity
  8
0
  6
Continuous
 62
     7
370
    25
100
AcDbCircle
 10
6227.0187553361
 20
5116.6994545927
 30
0.0
 40
3.0
100
AcDbArc
 50
180.0
 51
270.0
  0
LINE
  5
17E
330
1F
100
AcDbEntity
  8
0
  6
Continuous
 62
     7
370
    25
100
AcDbLine
 10
6202.5187553361
 20
5353.1994545927
 30
0.0
 11
6202.5187553361
 21
5074.1994545927
 31
0.0
  0
LINE
  5
17F
330
1F
100
AcDbEntity
  8
0
  6
Continuous
 62
     7
370
    25
100
AcDbLine
 10
6343.5187553361
 20
5355.1994545927
 30
0.0
 11
6204.5187553361
 21
5355.1994545927
 31
0.0
  0
ARC
  5
180
330
1F
100
AcDbEntity
  8
0
  6
Continuous
 62
     7
370
    25
100
AcDbCircle
 10
6343.5187553361
 20
5353.1994545927
 30
0.0
 40
2.000000000000909
100
AcDbArc
 50
0.0
 51
90.0
  0
LINE
  5
181
330
1F
100
AcDbEntity
  8
0
  6
Continuous
 62
     7
370
    25
100
AcDbLine
 10
6345.5187553361
 20
5074.1994545927
 30
0.0
 11
6345.5187553361
 21
5353.1994545927
 31
0.0
  0
LINE
  5
182
330
1F
100
AcDbEntity
  8
0
  6
Continuous
 62
     7
370
    25
100
AcDbLine
 10
6204.5187553361
 20
5072.1994545927
 30
0.0
 11
6343.5187553361
 21
5072.1994545927
 31
0.0
  0
ARC
  5
183
330
1F
100
AcDbEntity
  8
0
  6
Continuous
 62
     7
370
    25
100
AcDbCircle
 10
6204.5187553361
 20
5074.1994545927
 30
0.0
 40
2.000000000000909
100
AcDbArc
 50
180.0
 51
270.0
  0
CIRCLE
  5
184
330
1F
100
AcDbEntity
  8
0
  6
Continuous
 62
     7
370
    25
100
AcDbCircle
 10
6221.5187553361
 20
5336.1994545927
 30
0.0
 40
5.200000000000728
  0
LINE
  5
185
330
1F
100
AcDbEntity
  8
0
  6
Continuous
 62
     7
370
    25
100
AcDbLine
 10
6292.3973604567
 20
5214.2056473474
 30
0.0
 11
6292.6339310823
 21
5212.0301942447
 31
0.0
  0
LINE
  5
186
330
1F
100
AcDbEntity
  8
0
  6
Continuous
 62
     7
370
    25
100
AcDbLine
 10
6294.255552704
 20
5197.1181070898
 30
0.0
 11
6294.5054685648
 21
5194.819934046
 31
0.0
  0
LINE
  5
187
330
1F
100
AcDbEntity
  8
0
  6
Continuous
 62
     7
370
    25
100
AcDbLine
 10
6295.0815361446
 20
5214.4975392393
 30
0.0
 11
6292.3973604567
 21
5214.2056473474
 31
0.0
  0
ARC
  5
188
330
1F
100
AcDbEntity
  8
0
  6
Continuous
 62
     7
370
    25
100
AcDbCircle
 10
6321.0187553361
 20
5116.6994545927
 30
0.0
 40
3.0
100
AcDbArc
 50
270.0
 51
0.0
  0
ARC
  5
189
330
1F
100
AcDbEntity
  8
0
  6
Continuous
 62
     7
370
    25
100
AcDbCircle
 10
6227.0187553361
 20
5185.6994545927
 30
0.0
 40
3.0
100
AcDbArc
 50
90.0
 51
180.0
  0
ARC
  5
18A
330
1F
100
AcDbEntity
  8
0
  6
Continuous
 62
     7
370
    25
100
AcDbCircle
 10
6299.2187553361
 20
5272.6994545927
 30
0.0
 40
12.70000000000016
100
AcDbArc
 50
240.0133329511
 51
119.9866670489
  0
LINE
  5
18B
330
1F
100
AcDbEntity
  8
0
  6
Continuous
 62
     7
370
    25
100
AcDbLine
 10
6292.4846935767
 20
5286.1865604461
 30
0.0
 11
6288.4486736489
 21
5314.9043344396
 31
0.0
  0
LINE
  5
18C
330
1F
100
AcDbEntity
  8
0
  6
Continuous
 62
     7
370
    25
100
AcDbLine
 10
6224.0187553361
 20
5185.6994545927
 30
0.0
 11
6224.0187553361
 21
5116.6994545927
 31
0.0
  0
LINE
  5
18D
330
1F
100
AcDbEntity
  8
0
  6
Continuous
 62
     7
370
    25
100
AcDbLine
 10
6301.6428544927
 20
5215.2110527528
 30
0.0
 11
6299.1023139522
 21
5238.5733226289
 31
0.0
  0
LINE
  5
18E
330
1F
100
AcDbEntity
  8
0
  6
Continuous
 62
     7
370
    25
100
AcDbLine
 10
6324.0187553361
 20
5116.6994545927
 30
0.0
 11
6324.0187553361
 21
5185.6994545927
 31
0.0
  0
LINE
  5
18F
330
1F
100
AcDbEntity
  8
0
  6
Continuous
 62
     7
370
    25
100
AcDbLine
 10
6306.4351382887
 20
5196.1172313433
 30
0.0
 11
6304.3270301806
 21
5215.5029446447
 31
0.0
  0
LINE
  5
190
330
1F
100
AcDbEntity
  8
0
  6
Continuous
 62
     7
370
    25
100
AcDbLine
 10
6288.4486736489
 20
5314.9043344396
 30
0.0
 11
6284.9827354083
 21
5314.4172285862
 31
0.0
  0
LINE
  5
191
330
1F
100
AcDbEntity
  8
0
  6
Continuous
 62
     7
370
    25
100
AcDbLine
 10
6299.1023139522
 20
5238.5733226289
 30
0.0
 11
6292.540995604
 21
5237.8598091153
 31
0.0
  0
LINE
  5
192
330
1F
100
AcDbEntity
  8
0
  6
Continuous
 62
     7
370
    25
100
AcDbLine
 10
6284.9827354083
 20
5314.4172285862
 30
0.0
 11
6289.0187553361
 21
5285.6994545927
 31
0.0
  0
LINE
  5
193
330
1F
100
AcDbEntity
  8
0
  6
Continuous
 62
     7
370
    25
100
AcDbLine
 10
6304.3270301806
 20
5215.5029446447
 30
0.0
 11
6301.6428544927
 21
5215.2110527528
 31
0.0
  0
LINE
  5
194
330
1F
100
AcDbEntity
  8
0
  6
Continuous
 62
     7
370
    25
100
AcDbLine
 10
6289.0187553361
 20
5285.6994545927
 30
0.0
 11
6292.4846935767
 21
5286.1865604461
 31
0.0
  0
LINE
  5
195
330
1F
100
AcDbEntity
  8
0
  6
Continuous
 62
     7
370
    25
100
AcDbLine
 10
6294.5054685648
 20
5194.819934046
 30
0.0
 11
6306.4351382887
 21
5196.1172313433
 31
0.0
  0
ARC
  5
196
330
1F
100
AcDbEntity
  8
0
  6
Continuous
 62
     7
370
    25
100
AcDbCircle
 10
6321.0187553361
 20
5185.6994545927
 30
0.0
 40
3.0
100
AcDbArc
 50
0.0
 51
90.0
  0
LINE
  5
197
330
1F
100
AcDbEntity
  8
0
  6
Continuous
 62
     7
370
    25
100
AcDbLine
 10
6204.5187553361
 20
5356.1994545927
 30
0.0
 11
6343.5187553361
 21
5356.1994545927
 31
0.0
  0
LINE
  5
198
330
1F
100
AcDbEntity
  8
0
  6
Continuous
 62
     7
370
    25
100
AcDbLine
 10
6343.5187553361
 20
5356.1994545927
 30
0.0
 11
6343.5187553361
 21
5355.1994545927
 31
0.0
  0
LINE
  5
199
330
1F
100
AcDbEntity
  8
0
  6
Continuous
 62
     7
370
    25
100
AcDbLine
 10
6204.5187553361
 20
5072.1994545927
 30
0.0
 11
6204.5187553361
 21
5071.1994545927
 31
0.0
  0
ARC
  5
19A
330
1F
100
AcDbEntity
  8
0
  6
Continuous
 62
     7
370
    25
100
AcDbCircle
 10
6204.5187553361
 20
5074.1994545927
 30
0.0
 40
3.0
100
AcDbArc
 50
180.0
 51
270.0
  0
LINE
  5
19B
330
1F
100
AcDbEntity
  8
0
  6
Continuous
 62
     7
370
    25
100
AcDbLine
 10
6202.5187553361
 20
5074.1994545927
 30
0.0
 11
6201.5187553361
 21
5074.1994545927
 31
0.0
  0
LINE
  5
19C
330
1F
100
AcDbEntity
  8
0
  6
Continuous
 62
     7
370
    25
100
AcDbLine
 10
6346.5187553361
 20
5353.1994545927
 30
0.0
 11
6346.5187553361
 21
5074.1994545927
 31
0.0
  0
LINE
  5
19D
330
1F
100
AcDbEntity
  8
0
  6
Continuous
 62
     7
370
    25
100
AcDbLine
 10
6346.5187553361
 20
5353.1994545927
 30
0.0
 11
6345.5187553361
 21
5353.1994545927
 31
0.0
  0
LINE
  5
19E
330
1F
100
AcDbEntity
  8
0
  6
Continuous
 62
     7
370
    25
100
AcDbLine
 10
6343.5187553361
 20
5071.1994545927
 30
0.0
 11
6204.5187553361
 21
5071.1994545927
 31
0.0
  0
LINE
  5
19F
330
1F
100
AcDbEntity
  8
0
  6
Continuous
 62
     7
370
    25
100
AcDbLine
 10
6201.5187553361
 20
5074.1994545927
 30
0.0
 11
6201.5187553361
 21
5353.1994545927
 31
0.0
  0
ARC
  5
1A0
330
1F
100
AcDbEntity
  8
0
  6
Continuous
 62
     7
370
    25
100
AcDbCircle
 10
6343.5187553361
 20
5353.1994545927
 30
0.0
 40
3.000000000000909
100
AcDbArc
 50
0.0
 51
90.0
  0
LINE
  5
1A1
330
1F
100
AcDbEntity
  8
0
  6
Continuous
 62
     7
370
    25
100
AcDbLine
 10
6227.0187553361
 20
5113.9494545927
 30
0.0
 11
6321.0187553361
 21
5113.9494545927
 31
0.0
  0
LINE
  5
1A2
330
1F
100
AcDbEntity
  8
0
  6
Continuous
 62
     7
370
    25
100
AcDbLine
 10
6323.7687553361
 20
5116.6994545927
 30
0.0
 11
6323.7687553361
 21
5185.6994545927
 31
0.0
  0
ARC
  5
1A3
330
1F
100
AcDbEntity
  8
0
  6
Continuous
 62
     7
370
    25
100
AcDbCircle
 10
6227.0187553361
 20
5116.6994545927
 30
0.0
 40
2.75
100
AcDbArc
 50
180.0
 51
270.0
  0
ARC
  5
1A4
330
1F
100
AcDbEntity
  8
0
  6
Continuous
 62
     7
370
    25
100
AcDbCircle
 10
6321.0187553361
 20
5116.6994545927
 30
0.0
 40
2.75
100
AcDbArc
 50
270.0
 51
0.0
  0
ARC
  5
1A5
330
1F
100
AcDbEntity
  8
0
  6
Continuous
 62
     7
370
    25
100
AcDbCircle
 10
6227.0187553361
 20
5185.6994545927
 30
0.0
 40
2.75
100
AcDbArc
 50
90.0
 51
180.0
  0
ARC
  5
1A6
330
1F
100
AcDbEntity
  8
0
  6
Continuous
 62
     7
370
    25
100
AcDbCircle
 10
6321.0187553361
 20
5185.6994545927
 30
0.0
 40
2.75
100
AcDbArc
 50
0.0
 51
90.0
  0
LINE
  5
1A7
330
1F
100
AcDbEntity
  8
0
  6
Continuous
 62
     7
370
    25
100
AcDbLine
 10
6321.0187553361
 20
5188.4494545927
 30
0.0
 11
6227.0187553361
 21
5188.4494545927
 31
0.0
  0
LINE
  5
1A8
330
1F
100
AcDbEntity
  8
0
  6
Continuous
 62
     7
370
    25
100
AcDbLine
 10
6224.2687553361
 20
5185.6994545927
 30
0.0
 11
6224.2687553361
 21
5116.6994545927
 31
0.0
  0
LINE
  5
1A9
330
1F
100
AcDbEntity
  8
0
  6
Continuous
 62
     7
370
    25
100
AcDbLine
 10
6323.7687553361
 20
5137.2390623981
 30
0.0
 11
6324.0187553361
 21
5137.1609591173
 31
0.0
  0
LINE
  5
1AA
330
1F
100
AcDbEntity
  8
0
  6
Continuous
 62
     7
370
    25
100
AcDbLine
 10
6324.0187553361
 20
5133.2379500681
 30
0.0
 11
6323.7687553361
 21
5133.1598467872
 31
0.0
  0
LINE
  5
1AB
330
1F
100
AcDbEntity
  8
0
  6
Continuous
 62
     7
370
    25
100
AcDbLine
 10
6323.7687553361
 20
5137.6489443355
 30
0.0
 11
6324.0187553361
 21
5137.5843025962
 31
0.0
  0
LINE
  5
1AC
330
1F
100
AcDbEntity
  8
0
  6
Continuous
 62
     7
370
    25
100
AcDbLine
 10
6324.0187553361
 20
5132.8146065891
 30
0.0
 11
6323.7687553361
 21
5132.7499648499
 31
0.0
  0
LINE
  5
1AD
330
1F
100
AcDbEntity
  8
0
  6
Continuous
 62
     7
370
    25
100
AcDbLine
 10
6224.0187553361
 20
5137.1609591173
 30
0.0
 11
6224.2687553361
 21
5137.2390623981
 31
0.0
  0
LINE
  5
1AE
330
1F
100
AcDbEntity
  8
0
  6
Continuous
 62
     7
370
    25
100
AcDbLine
 10
6224.2687553361
 20
5133.1598467872
 30
0.0
 11
6224.0187553361
 21
5133.2379500681
 31
0.0
  0
LINE
  5
1AF
330
1F
100
AcDbEntity
  8
0
  6
Continuous
 62
     7
370
    25
100
AcDbLine
 10
6224.0187553361
 20
5137.5843025962
 30
0.0
 11
6224.2687553361
 21
5137.6489443355
 31
0.0
  0
LWPOLYLINE
  5
1B0
330
1F
100
AcDbEntity
  8
0
  6
Continuous
 62
     7
370
    25
100
AcDbPolyline
 90
        3
 70
   128
 43
0.0
 10
6224.2687553361
 20
5132.7499648499
 10
6224.1861039589
 20
5132.7682990294
 10
6224.0187553361
 20
5132.8146065891
  0
LINE
  5
1B1
330
1F
100
AcDbEntity
  8
0
  6
Continuous
 62
     7
370
    25
100
AcDbLine
 10
6323.7687553361
 20
5138.8814650487
 30
0.0
 11
6324.0187553361
 21
5138.855046378
 31
0.0
  0
LINE
  5
1B2
330
1F
100
AcDbEntity
  8
0
  6
Continuous
 62
     7
370
    25
100
AcDbLine
 10
6324.0187553361
 20
5144.8819129582
 30
0.0
 11
6323.7687553361
 21
5144.9430422276
 31
0.0
  0
LINE
  5
1B3
330
1F
100
AcDbEntity
  8
0
  6
Continuous
 62
     7
370
    25
100
AcDbLine
 10
6224.2687553361
 20
5144.9430422276
 30
0.0
 11
6224.0187553361
 21
5144.8819129582
 31
0.0
  0
LINE
  5
1B4
330
1F
100
AcDbEntity
  8
0
  6
Continuous
 62
     7
370
    25
100
AcDbLine
 10
6268.5187553361
 20
5113.9494545927
 30
0.0
 11
6268.5187553361
 21
5113.6994545927
 31
0.0
  0
LINE
  5
1B5
330
1F
100
AcDbEntity
  8
0
  6
Continuous
 62
     7
370
    25
100
AcDbLine
 10
6266.5187553361
 20
5113.6994545927
 30
0.0
 11
6266.5187553361
 21
5113.9494545927
 31
0.0
  0
LINE
  5
1B6
330
1F
100
AcDbEntity
  8
0
  6
Continuous
 62
     7
370
    25
100
AcDbLine
 10
6281.5187553361
 20
5113.9494545927
 30
0.0
 11
6281.5187553361
 21
5113.6994545927
 31
0.0
  0
LINE
  5
1B7
330
1F
100
AcDbEntity
  8
0
  6
Continuous
 62
     7
370
    25
100
AcDbLine
 10
6279.5187553361
 20
5113.6994545927
 30
0.0
 11
6279.5187553361
 21
5113.9494545927
 31
0.0
  0
LINE
  5
1B8
330
1F
100
AcDbEntity
  8
0
  6
Continuous
 62
     7
370
    25
100
AcDbLine
 10
6224.2687553361
 20
5132.2414147011
 30
0.0
 11
6224.0187553361
 21
5132.294717083
 31
0.0
  0
LINE
  5
1B9
330
1F
100
AcDbEntity
  8
0
  6
Continuous
 62
     7
370
    25
100
AcDbLine
 10
6224.0187553361
 20
5138.1041921023
 30
0.0
 11
6224.2687553361
 21
5138.1574944842
 31
0.0
  0
LINE
  5
1BA
330
1F
100
AcDbEntity
  8
0
  6
Continuous
 62
     7
370
    25
100
AcDbLine
 10
6224.2687553361
 20
5131.7353529775
 30
0.0
 11
6224.0187553361
 21
5131.7807560099
 31
0.0
  0
LINE
  5
1BB
330
1F
100
AcDbEntity
  8
0
  6
Continuous
 62
     7
370
    25
100
AcDbLine
 10
6224.0187553361
 20
5138.6181531755
 30
0.0
 11
6224.2687553361
 21
5138.6635562078
 31
0.0
  0
LINE
  5
1BC
330
1F
100
AcDbEntity
  8
0
  6
Continuous
 62
     7
370
    25
100
AcDbLine
 10
6323.7687553361
 20
5138.1574944842
 30
0.0
 11
6324.0187553361
 21
5138.1041921023
 31
0.0
  0
LINE
  5
1BD
330
1F
100
AcDbEntity
  8
0
  6
Continuous
 62
     7
370
    25
100
AcDbLine
 10
6324.0187553361
 20
5132.294717083
 30
0.0
 11
6323.7687553361
 21
5132.2414147011
 31
0.0
  0
LINE
  5
1BE
330
1F
100
AcDbEntity
  8
0
  6
Continuous
 62
     7
370
    25
100
AcDbLine
 10
6324.0187553361
 20
5131.7807560099
 30
0.0
 11
6323.7687553361
 21
5131.7353529775
 31
0.0
  0
LINE
  5
1BF
330
1F
100
AcDbEntity
  8
0
  6
Continuous
 62
     7
370
    25
100
AcDbLine
 10
6255.5687553361
 20
5188.6994545927
 30
0.0
 11
6255.5687553361
 21
5188.4494545927
 31
0.0
  0
LINE
  5
1C0
330
1F
100
AcDbEntity
  8
0
  6
Continuous
 62
     7
370
    25
100
AcDbLine
 10
6242.5687553361
 20
5188.6994545927
 30
0.0
 11
6242.5687553361
 21
5188.4494545927
 31
0.0
  0
ARC
  5
1C1
330
1F
100
AcDbEntity
  8
0
  6
Continuous
 62
     7
370
    25
100
AcDbCircle
 10
6249.0187553361
 20
5210.6994545927
 30
0.0
 40
5.599999999999954
100
AcDbArc
 50
94.4980126049
 51
84.2523695851
  0
SPLINE
  5
1C2
330
1F
100
AcDbEntity
  8
0
  6
Continuous
 62
     7
370
    25
100
AcDbSpline
210
0.0
220
0.0
230
1.0
 70
    24
 71
     3
 72
    13
 73
     9
 74
     0
 42
0.00000001
 43
0.00000001
 40
0.0
 40
0.0
 40
0.0
 40
0.0
 40
0.0254342784919342
 40
0.2391405405228668
 40
0.4528843033372799
 40
0.6670512278740933
 40
0.8818628295038904
 40
1.0
 40
1.0
 40
1.0
 40
1.0
 10
6248.579578046397
 20
5216.282206898499
 30
0.0
 10
6248.579578046397
 20
5216.282172886215
 30
0.0
 10
6248.579578046397
 20
5216.281853092755
 30
0.0
 10
6248.579578046397
 20
5216.271664496243
 30
0.0
 10
6248.579578046397
 20
5216.236280243194
 30
0.0
 10
6248.579578046397
 20
5216.183459486288
 30
0.0
 10
6248.579578046397
 20
5216.128720310473
 30
0.0
 10
6248.579578046397
 20
5216.093915487336
 30
0.0
 10
6248.579578046397
 20
5216.081566009971
 30
0.0
  0
ARC
  5
1C3
330
1F
100
AcDbEntity
  8
0
  6
Continuous
 62
     7
370
    25
100
AcDbCircle
 10
6249.0187553361
 20
5210.6994545927
 30
0.0
 40
5.400000000000178
100
AcDbArc
 50
94.6649681226
 51
84.0387368535
  0
SPLINE
  5
1C4
330
1F
100
AcDbEntity
  8
0
  6
Continuous
 62
     7
370
    25
100
AcDbSpline
210
0.0
220
0.0
230
1.0
 70
    24
 71
     3
 72
    13
 73
     9
 74
     0
 42
0.00000001
 43
0.00000001
 40
0.0
 40
0.0
 40
0.0
 40
0.0
 40
0.0078315083444775
 40
0.2242134010656828
 40
0.440506527411377
 40
0.6560344530517136
 40
0.8704785517425164
 40
0.9999999999999999
 40
0.9999999999999999
 40
0.9999999999999999
 40
0.9999999999999999
 10
6249.579578046397
 20
5216.070253219284
 30
0.0
 10
6249.579578046397
 20
5216.071071858087
 30
0.0
 10
6249.579578046397
 20
5216.094509206544
 30
0.0
 10
6249.579578046397
 20
5216.140812713288
 30
0.0
 10
6249.579578046397
 20
5216.200814926146
 30
0.0
 10
6249.579578046397
 20
5216.245629808266
 30
0.0
 10
6249.579578046397
 20
5216.268275692386
 30
0.0
 10
6249.579578046397
 20
5216.270473791568
 30
0.0
 10
6249.579578046397
 20
5216.271301493622
 30
0.0
  0
ARC
  5
1C5
330
1F
100
AcDbEntity
  8
0
  6
Continuous
 62
     7
370
    25
100
AcDbCircle
 10
6249.5795780464
 20
5211.32263469
 30
0.0
 40
1.0
100
AcDbArc
 50
130.7111856769
 51
180.0
  0
LINE
  5
1C6
330
1F
100
AcDbEntity
  8
0
  6
Continuous
 62
     7
370
    25
100
AcDbLine
 10
6248.5795780464
 20
5211.32263469
 30
0.0
 11
6248.5795780464
 21
5210.7526892957
 31
0.0
  0
LINE
  5
1C7
330
1F
100
AcDbEntity
  8
0
  6
Continuous
 62
     7
370
    25
100
AcDbLine
 10
6249.7658047081
 20
5208.0760594806
 30
0.0
 11
6249.7658047081
 21
5210.9910854709
 31
0.0
  0
ARC
  5
1C8
330
1F
100
AcDbEntity
  8
0
  6
Continuous
 62
     7
370
    25
100
AcDbCircle
 10
6248.5795780464
 20
5212.4847829442
 30
0.0
 40
1.53316292829734
100
AcDbArc
 50
310.7111856769
 51
49.2888143231
  0
LINE
  5
1C9
330
1F
100
AcDbEntity
  8
0
  6
Continuous
 62
     7
370
    25
100
AcDbLine
 10
6248.5795780464
 20
5210.7526892957
 30
0.0
 11
6248.7658047081
 21
5210.5704762981
 31
0.0
  0
LINE
  5
1CA
330
1F
100
AcDbEntity
  8
0
  6
Continuous
 62
     7
370
    25
100
AcDbLine
 10
6248.7658047081
 20
5210.5704762981
 30
0.0
 11
6248.7658047081
 21
5208.0760594806
 31
0.0
  0
ARC
  5
1CB
330
1F
100
AcDbEntity
  8
0
  6
Continuous
 62
     7
370
    25
100
AcDbCircle
 10
6249.2658047081
 20
5208.0760594806
 30
0.0
 40
0.5000000000009095
100
AcDbArc
 50
180.0
 51
0.0
  0
ARC
  5
1CC
330
1F
100
AcDbEntity
  8
0
  6
Continuous
 62
     7
370
    25
100
AcDbCircle
 10
6248.5795780464
 20
5212.4847829442
 30
0.0
 40
0.5331629282975915
100
AcDbArc
 50
310.7111856769
 51
90.0
  0
LINE
  5
1CD
330
1F
100
AcDbEntity
  8
0
  6
Continuous
 62
     7
370
    25
100
AcDbLine
 10
6249.7658047081
 20
5210.9910854709
 30
0.0
 11
6249.5795780464
 21
5211.1732984684
 31
0.0
  0
LINE
  5
1CE
330
1F
100
AcDbEntity
  8
0
  6
Continuous
 62
     7
370
    25
100
AcDbLine
 10
6249.5795780464
 20
5211.1732984684
 30
0.0
 11
6249.5795780464
 21
5211.32263469
 31
0.0
  0
LINE
  5
1CF
330
1F
100
AcDbEntity
  8
0
  6
Continuous
 62
     7
370
    25
100
AcDbLine
 10
6248.5795780464
 20
5216.08156601
 30
0.0
 11
6248.5795780464
 21
5213.0179458725
 31
0.0
  0
LINE
  5
1D0
330
1F
100
AcDbEntity
  8
0
  6
Continuous
 62
     7
370
    25
100
AcDbLine
 10
6249.5795780464
 20
5213.6469311984
 30
0.0
 11
6249.5795780464
 21
5216.0702532193
 31
0.0
  0
CIRCLE
  5
1D1
330
1F
100
AcDbEntity
  8
0
  6
Continuous
 62
     7
370
    25
100
AcDbCircle
 10
6249.0187553361
 20
5206.6994545927
 30
0.0
 40
11.0
  0
ARC
  5
1D2
330
1F
100
AcDbEntity
  8
0
  6
Continuous
 62
     7
370
    25
100
AcDbCircle
 10
6249.0187553361
 20
5210.6994545927
 30
0.0
 40
5.599999999999954
100
AcDbArc
 50
84.2523695851
 51
94.4980126049
  0
CIRCLE
  5
1D3
330
1F
100
AcDbEntity
  8
0
  6
Continuous
 62
     7
370
    25
100
AcDbCircle
 10
6249.0187553361
 20
5206.6994545927
 30
0.0
 40
12.0
  0
LINE
  5
1D4
330
1F
100
AcDbEntity
  8
0
  6
Continuous
 62
     7
370
    25
100
AcDbLine
 10
6224.2687553361
 20
5148.6994545927
 30
0.0
 11
6224.0187553361
 21
5148.6994545927
 31
0.0
  0
LINE
  5
1D5
330
1F
100
AcDbEntity
  8
0
  6
Continuous
 62
     7
370
    25
100
AcDbLine
 10
6224.2687553361
 20
5145.9494545927
 30
0.0
 11
6224.0187553361
 21
5145.9494545927
 31
0.0
  0
LINE
  5
1D6
330
1F
100
AcDbEntity
  8
0
  6
Continuous
 62
     7
370
    25
100
AcDbLine
 10
6224.2687553361
 20
5151.4494545927
 30
0.0
 11
6224.0187553361
 21
5151.4494545927
 31
0.0
  0
LINE
  5
1D7
330
1F
100
AcDbEntity
  8
0
  6
Continuous
 62
     8
370
    25
100
AcDbLine
 10
6224.2687553361
 20
5126.6994545927
 30
0.0
 11
6224.0187553361
 21
5126.6994545927
 31
0.0
  0
LINE
  5
1D8
330
1F
100
AcDbEntity
  8
0
  6
Continuous
 62
     8
370
    25
100
AcDbLine
 10
6324.0187553361
 20
5126.6994545927
 30
0.0
 11
6323.7687553361
 21
5126.6994545927
 31
0.0
  0
ARC
  5
1D9
330
1F
100
AcDbEntity
  8
0
  6
Continuous
 62
     7
370
    25
100
AcDbCircle
 10
6471.1795099119
 20
5313.9494545927
 30
0.0
 40
2.250000000000909
100
AcDbArc
 50
90.0
 51
180.0
  0
ARC
  5
1DA
330
1F
100
AcDbEntity
  8
0
  6
Continuous
 62
     7
370
    25
100
AcDbCircle
 10
6471.1795099119
 20
5296.4494545927
 30
0.0
 40
2.25
100
AcDbArc
 50
180.0
 51
270.0
  0
LINE
  5
1DB
330
1F
100
AcDbEntity
  8
0
  6
Continuous
 62
     7
370
    25
100
AcDbLine
 10
6502.1699578093
 20
5343.4923478116
 30
0.0
 11
6502.1795099119
 21
5343.6994545927
 31
0.0
  0
LINE
  5
1DC
330
1F
100
AcDbEntity
  8
0
  6
Continuous
 62
     7
370
    25
100
AcDbLine
 10
6480.1795099119
 20
5343.6994545927
 30
0.0
 11
6480.1890620144
 21
5343.4923478116
 31
0.0
  0
ARC
  5
1DD
330
1F
100
AcDbEntity
  8
0
  6
Continuous
 62
     7
370
    25
100
AcDbCircle
 10
6499.9295099119
 20
5345.1994545927
 30
0.0
 40
2.250000000000909
100
AcDbArc
 50
0.0
 51
90.0
  0
ARC
  5
1DE
330
1F
100
AcDbEntity
  8
0
  6
Continuous
 62
     7
370
    25
100
AcDbCircle
 10
6482.4295099119
 20
5345.1994545927
 30
0.0
 40
2.250000000000909
100
AcDbArc
 50
90.0
 51
180.0
  0
LINE
  5
1DF
330
1F
100
AcDbEntity
  8
0
  6
Continuous
 62
     7
370
    25
100
AcDbLine
 10
6500.6795099119
 20
5343.6994545927
 30
0.0
 11
6500.6795099119
 21
5344.1994545927
 31
0.0
  0
LINE
  5
1E0
330
1F
100
AcDbEntity
  8
0
  6
Continuous
 62
     7
370
    25
100
AcDbLine
 10
6481.6795099119
 20
5344.1994545927
 30
0.0
 11
6481.6795099119
 21
5343.6994545927
 31
0.0
  0
LINE
  5
1E1
330
1F
100
AcDbEntity
  8
0
  6
Continuous
 62
     7
370
    25
100
AcDbLine
 10
6596.1795099119
 20
5337.6665233859
 30
0.0
 11
6596.1953370265
 21
5337.6665233859
 31
0.0
  0
LINE
  5
1E2
330
1F
100
AcDbEntity
  8
0
  6
Continuous
 62
     7
370
    25
100
AcDbLine
 10
6596.1950992085
 20
5334.7323857996
 30
0.0
 11
6596.1795099119
 21
5334.7323857996
 31
0.0
  0
LINE
  5
1E3
330
1F
100
AcDbEntity
  8
0
  6
Continuous
 62
     7
370
    25
100
AcDbLine
 10
6596.1795099119
 20
5335.4494545927
 30
0.0
 11
6596.2657858057
 21
5335.4494545927
 31
0.0
  0
LINE
  5
1E4
330
1F
100
AcDbEntity
  8
0
  6
Continuous
 62
     7
370
    25
100
AcDbLine
 10
6596.2657858057
 20
5336.9494545927
 30
0.0
 11
6596.1795099119
 21
5336.9494545927
 31
0.0
  0
ARC
  5
1E5
330
1F
100
AcDbEntity
  8
0
  6
Continuous
 62
     7
370
    25
100
AcDbCircle
 10
6575.7795099119
 20
5336.1994545927
 30
0.0
 40
20.5
100
AcDbArc
 50
357.9033450422
 51
0.0
  0
ARC
  5
1E6
330
1F
100
AcDbEntity
  8
0
  6
Continuous
 62
     7
370
    25
100
AcDbCircle
 10
6575.7795099119
 20
5336.1994545927
 30
0.0
 40
20.5
100
AcDbArc
 50
0.0
 51
2.0966549578
  0
LINE
  5
1E7
330
1F
100
AcDbEntity
  8
0
  6
Continuous
 62
     7
370
    25
100
AcDbLine
 10
6596.1795099119
 20
5092.6665233859
 30
0.0
 11
6596.1953370265
 21
5092.6665233859
 31
0.0
  0
LINE
  5
1E8
330
1F
100
AcDbEntity
  8
0
  6
Continuous
 62
     7
370
    25
100
AcDbLine
 10
6596.1950992085
 20
5089.7323857995
 30
0.0
 11
6596.1795099119
 21
5089.7323857995
 31
0.0
  0
ARC
  5
1E9
330
1F
100
AcDbEntity
  8
0
  6
Continuous
 62
     7
370
    25
100
AcDbCircle
 10
6575.7795099119
 20
5091.1994545927
 30
0.0
 40
20.5
100
AcDbArc
 50
357.9033450422
 51
0.0
  0
ARC
  5
1EA
330
1F
100
AcDbEntity
  8
0
  6
Continuous
 62
     7
370
    25
100
AcDbCircle
 10
6575.7795099119
 20
5091.1994545927
 30
0.0
 40
20.5
100
AcDbArc
 50
0.0
 51
2.0966549578
  0
LINE
  5
1EB
330
1F
100
AcDbEntity
  8
0
  6
Continuous
 62
     7
370
    25
100
AcDbLine
 10
6596.1795099119
 20
5090.4494545927
 30
0.0
 11
6596.2657858057
 21
5090.4494545927
 31
0.0
  0
LINE
  5
1EC
330
1F
100
AcDbEntity
  8
0
  6
Continuous
 62
     7
370
    25
100
AcDbLine
 10
6596.2657858057
 20
5091.9494545927
 30
0.0
 11
6596.1795099119
 21
5091.9494545927
 31
0.0
  0
LINE
  5
1ED
330
1F
100
AcDbEntity
  8
0
  6
Continuous
 62
     7
370
    25
100
AcDbLine
 10
6599.1795099119
 20
5262.5994545927
 30
0.0
 11
6605.1795099119
 21
5262.5994545927
 31
0.0
  0
LINE
  5
1EE
330
1F
100
AcDbEntity
  8
0
  6
Continuous
 62
     7
370
    25
100
AcDbLine
 10
6605.1795099119
 20
5282.7994545927
 30
0.0
 11
6599.1795099119
 21
5282.7994545927
 31
0.0
  0
ARC
  5
1EF
330
1F
100
AcDbEntity
  8
0
  6
Continuous
 62
     7
370
    25
100
AcDbCircle
 10
6580.6770099119
 20
5272.6994545927
 30
0.0
 40
26.50250000000061
100
AcDbArc
 50
337.5984044242
 51
0.0
  0
ARC
  5
1F0
330
1F
100
AcDbEntity
  8
0
  6
Continuous
 62
     7
370
    25
100
AcDbCircle
 10
6580.6770099119
 20
5272.6994545927
 30
0.0
 40
26.50250000000051
100
AcDbArc
 50
0.0
 51
22.4015955758
  0
LINE
  5
1F1
330
1F
100
AcDbEntity
  8
0
  6
Continuous
 62
     7
370
    25
100
AcDbLine
 10
6596.1795099119
 20
5260.1994545927
 30
0.0
 11
6599.1795099119
 21
5260.1994545927
 31
0.0
  0
LINE
  5
1F2
330
1F
100
AcDbEntity
  8
0
  6
Continuous
 62
     7
370
    25
100
AcDbLine
 10
6599.1795099119
 20
5285.1994545927
 30
0.0
 11
6596.1795099119
 21
5285.1994545927
 31
0.0
  0
LINE
  5
1F3
330
1F
100
AcDbEntity
  8
0
  6
Continuous
 62
     7
370
    25
100
AcDbLine
 10
6596.1795099119
 20
5194.6994545927
 30
0.0
 11
6597.2795099119
 21
5194.6994545927
 31
0.0
  0
LINE
  5
1F4
330
1F
100
AcDbEntity
  8
0
  6
Continuous
 62
     7
370
    25
100
AcDbLine
 10
6597.2795099119
 20
5218.6994545927
 30
0.0
 11
6596.1795099119
 21
5218.6994545927
 31
0.0
  0
LINE
  5
1F5
330
1F
100
AcDbEntity
  8
0
  6
Continuous
 62
     7
370
    25
100
AcDbLine
 10
6597.2795099119
 20
5194.6994545927
 30
0.0
 11
6598.2795099119
 21
5195.6994545927
 31
0.0
  0
LINE
  5
1F6
330
1F
100
AcDbEntity
  8
0
  6
Continuous
 62
     7
370
    25
100
AcDbLine
 10
6598.2795099119
 20
5217.6994545927
 30
0.0
 11
6597.2795099119
 21
5218.6994545927
 31
0.0
  0
ARC
  5
1F7
330
1F
100
AcDbEntity
  8
0
  6
Continuous
 62
     7
370
    25
100
AcDbCircle
 10
6598.2795099119
 20
5205.2994545927
 30
0.0
 40
0.2000000000007276
100
AcDbArc
 50
270.0
 51
0.0
  0
LINE
  5
1F8
330
1F
100
AcDbEntity
  8
0
  6
Continuous
 62
     7
370
    25
100
AcDbLine
 10
6468.9295099119
 20
5313.9494545927
 30
0.0
 11
6468.9295099119
 21
5296.4494545927
 31
0.0
  0
LINE
  5
1F9
330
1F
100
AcDbEntity
  8
0
  6
Continuous
 62
     7
370
    25
100
AcDbLine
 10
6502.1795099119
 20
5343.6994545927
 30
0.0
 11
6480.1795099119
 21
5343.6994545927
 31
0.0
  0
LINE
  5
1FA
330
1F
100
AcDbEntity
  8
0
  6
Continuous
 62
     7
370
    25
100
AcDbLine
 10
6499.9295099119
 20
5347.4494545927
 30
0.0
 11
6482.4295099119
 21
5347.4494545927
 31
0.0
  0
SPLINE
  5
1FB
330
1F
100
AcDbEntity
  8
0
  6
Continuous
 62
     7
370
    25
100
AcDbSpline
210
0.0
220
0.0
230
1.0
 70
     8
 71
     3
 72
    13
 73
     9
 74
     0
 42
0.00000001
 43
0.00000001
 40
0.0
 40
0.0
 40
0.0
 40
0.0
 40
0.1945921045770989
 40
0.3892164901963731
 40
0.5831042183270142
 40
0.7765337036201313
 40
0.9702718140458623
 40
1.0
 40
1.0
 40
1.0
 40
1.0
 10
6596.183263073054
 20
5334.322692469759
 30
0.0
 10
6596.187618091674
 20
5334.376838184941
 30
0.0
 10
6596.196328851373
 20
5334.485138597584
 30
0.0
 10
6596.202802230901
 20
5334.616680398258
 30
0.0
 10
6596.203318335281
 20
5334.705669071598
 30
0.0
 10
6596.197485117074
 20
5334.741195825474
 30
0.0
 10
6596.189327455927
 20
5334.726648893098
 30
0.0
 10
6596.18397510714
 20
5334.706156705153
 30
0.0
 10
6596.183263073054
 20
5334.703430586791
 30
0.0
  0
SPLINE
  5
1FC
330
1F
100
AcDbEntity
  8
0
  6
Continuous
 62
     7
370
    25
100
AcDbSpline
210
0.0
220
0.0
230
1.0
 70
     8
 71
     3
 72
    13
 73
     9
 74
     0
 42
0.00000001
 43
0.00000001
 40
0.0
 40
0.0
 40
0.0
 40
0.0
 40
0.1945921045769725
 40
0.3892164901964037
 40
0.5831042183268583
 40
0.7765337036200415
 40
0.9702718140457685
 40
1.0
 40
1.0
 40
1.0
 40
1.0
 10
6596.183263073054
 20
5337.695478598682
 30
0.0
 10
6596.187618091674
 20
5337.681849548655
 30
0.0
 10
6596.196328851373
 20
5337.654589187669
 30
0.0
 10
6596.202802230901
 20
5337.685309356179
 30
0.0
 10
6596.203318335281
 20
5337.766262922889
 30
0.0
 10
6596.197485117074
 20
5337.892632426922
 30
0.0
 10
6596.189327455926
 20
5338.005076029143
 30
0.0
 10
6596.18397510714
 20
5338.067863913
 30
0.0
 10
6596.183263073054
 20
5338.076216715715
 30
0.0
  0
SPLINE
  5
1FD
330
1F
100
AcDbEntity
  8
0
  6
Continuous
 62
     7
370
    25
100
AcDbSpline
210
0.0
220
0.0
230
1.0
 70
     8
 71
     3
 72
    13
 73
     9
 74
     0
 42
0.00000001
 43
0.00000001
 40
0.0
 40
0.0
 40
0.0
 40
0.0
 40
0.1945921045769955
 40
0.3892164901961372
 40
0.5831042183270445
 40
0.776533703620041
 40
0.9702718140458512
 40
1.0
 40
1.0
 40
1.0
 40
1.0
 10
6596.183263073054
 20
5335.818716475705
 30
0.0
 10
6596.187618091674
 20
5335.859233140861
 30
0.0
 10
6596.196328851373
 20
5335.940273192516
 30
0.0
 10
6596.202802230901
 20
5336.1025351617
 30
0.0
 10
6596.203318335281
 20
5336.272477401751
 30
0.0
 10
6596.197485117074
 20
5336.43437365966
 30
0.0
 10
6596.189327455927
 20
5336.532270329505
 30
0.0
 10
6596.18397510714
 20
5336.574566025416
 30
0.0
 10
6596.183263073054
 20
5336.580192709769
 30
0.0
  0
LINE
  5
1FE
330
1F
100
AcDbEntity
  8
0
  6
Continuous
 62
     7
370
    25
100
AcDbLine
 10
6596.2657858057
 20
5336.1994545927
 30
0.0
 11
6596.2657858057
 21
5336.9494545927
 31
0.0
  0
LINE
  5
1FF
330
1F
100
AcDbEntity
  8
0
  6
Continuous
 62
     7
370
    25
100
AcDbLine
 10
6596.2657858057
 20
5335.4494545927
 30
0.0
 11
6596.2657858057
 21
5336.1994545927
 31
0.0
  0
SPLINE
  5
200
330
1F
100
AcDbEntity
  8
0
  6
Continuous
 62
     7
370
    25
100
AcDbSpline
210
0.0
220
0.0
230
1.0
 70
     8
 71
     3
 72
    13
 73
     9
 74
     0
 42
0.00000001
 43
0.00000001
 40
0.0
 40
0.0
 40
0.0
 40
0.0
 40
0.1945921045770989
 40
0.3892164901963731
 40
0.5831042183270142
 40
0.7765337036201313
 40
0.9702718140458623
 40
1.0
 40
1.0
 40
1.0
 40
1.0
 10
6596.183263073054
 20
5089.322692469724
 30
0.0
 10
6596.187618091674
 20
5089.376838184906
 30
0.0
 10
6596.196328851373
 20
5089.485138597547
 30
0.0
 10
6596.202802230901
 20
5089.616680398223
 30
0.0
 10
6596.203318335281
 20
5089.705669071563
 30
0.0
 10
6596.197485117074
 20
5089.74119582544
 30
0.0
 10
6596.189327455927
 20
5089.726648893063
 30
0.0
 10
6596.18397510714
 20
5089.706156705118
 30
0.0
 10
6596.183263073054
 20
5089.703430586756
 30
0.0
  0
SPLINE
  5
201
330
1F
100
AcDbEntity
  8
0
  6
Continuous
 62
     7
370
    25
100
AcDbSpline
210
0.0
220
0.0
230
1.0
 70
     8
 71
     3
 72
    13
 73
     9
 74
     0
 42
0.00000001
 43
0.00000001
 40
0.0
 40
0.0
 40
0.0
 40
0.0
 40
0.1945921045769725
 40
0.3892164901964037
 40
0.5831042183268583
 40
0.7765337036200415
 40
0.9702718140457685
 40
1.0
 40
1.0
 40
1.0
 40
1.0
 10
6596.183263073054
 20
5092.695478598647
 30
0.0
 10
6596.187618091674
 20
5092.68184954862
 30
0.0
 10
6596.196328851373
 20
5092.654589187633
 30
0.0
 10
6596.202802230901
 20
5092.685309356144
 30
0.0
 10
6596.203318335281
 20
5092.766262922853
 30
0.0
 10
6596.197485117074
 20
5092.892632426887
 30
0.0
 10
6596.189327455926
 20
5093.005076029109
 30
0.0
 10
6596.18397510714
 20
5093.067863912965
 30
0.0
 10
6596.183263073054
 20
5093.076216715679
 30
0.0
  0
SPLINE
  5
202
330
1F
100
AcDbEntity
  8
0
  6
Continuous
 62
     7
370
    25
100
AcDbSpline
210
0.0
220
0.0
230
1.0
 70
     8
 71
     3
 72
    13
 73
     9
 74
     0
 42
0.00000001
 43
0.00000001
 40
0.0
 40
0.0
 40
0.0
 40
0.0
 40
0.1945921045769955
 40
0.3892164901961372
 40
0.5831042183270445
 40
0.776533703620041
 40
0.9702718140458512
 40
1.0
 40
1.0
 40
1.0
 40
1.0
 10
6596.183263073054
 20
5090.818716475669
 30
0.0
 10
6596.187618091674
 20
5090.859233140825
 30
0.0
 10
6596.196328851373
 20
5090.94027319248
 30
0.0
 10
6596.202802230901
 20
5091.102535161665
 30
0.0
 10
6596.203318335281
 20
5091.272477401714
 30
0.0
 10
6596.197485117074
 20
5091.434373659625
 30
0.0
 10
6596.189327455927
 20
5091.53227032947
 30
0.0
 10
6596.18397510714
 20
5091.574566025382
 30
0.0
 10
6596.183263073054
 20
5091.580192709734
 30
0.0
  0
LINE
  5
203
330
1F
100
AcDbEntity
  8
0
  6
Continuous
 62
     7
370
    25
100
AcDbLine
 10
6596.2657858057
 20
5091.1994545927
 30
0.0
 11
6596.2657858057
 21
5091.9494545927
 31
0.0
  0
LINE
  5
204
330
1F
100
AcDbEntity
  8
0
  6
Continuous
 62
     7
370
    25
100
AcDbLine
 10
6596.2657858057
 20
5090.4494545927
 30
0.0
 11
6596.2657858057
 21
5091.1994545927
 31
0.0
  0
LINE
  5
205
330
1F
100
AcDbEntity
  8
0
  6
Continuous
 62
     7
370
    25
100
AcDbLine
 10
6473.1795099119
 20
5343.4923478116
 30
0.0
 11
6591.1795099119
 21
5343.4923478116
 31
0.0
  0
LINE
  5
206
330
1F
100
AcDbEntity
  8
0
  6
Continuous
 62
     7
370
    25
100
AcDbLine
 10
6591.1795099119
 20
5343.4923478116
 30
0.0
 11
6591.1795099119
 21
5341.4923478116
 31
0.0
  0
LINE
  5
207
330
1F
100
AcDbEntity
  8
0
  6
Continuous
 62
     7
370
    25
100
AcDbLine
 10
6591.1795099119
 20
5330.1994545927
 30
0.0
 11
6591.1795099119
 21
5341.4923478116
 31
0.0
  0
LINE
  5
208
330
1F
100
AcDbEntity
  8
0
  6
Continuous
 62
     7
370
    25
100
AcDbLine
 10
6591.1795099119
 20
5097.1994545927
 30
0.0
 11
6591.1795099119
 21
5330.1994545927
 31
0.0
  0
LINE
  5
209
330
1F
100
AcDbEntity
  8
0
  6
Continuous
 62
     7
370
    25
100
AcDbLine
 10
6591.1795099119
 20
5085.9065613739
 30
0.0
 11
6591.1795099119
 21
5097.1994545927
 31
0.0
  0
LINE
  5
20A
330
1F
100
AcDbEntity
  8
0
  6
Continuous
 62
     7
370
    25
100
AcDbLine
 10
6591.1795099119
 20
5085.9065613739
 30
0.0
 11
6591.1795099119
 21
5083.9065613739
 31
0.0
  0
LINE
  5
20B
330
1F
100
AcDbEntity
  8
0
  6
Continuous
 62
     7
370
    25
100
AcDbLine
 10
6473.1795099119
 20
5083.9065613739
 30
0.0
 11
6591.1795099119
 21
5083.9065613739
 31
0.0
  0
LINE
  5
20C
330
1F
100
AcDbEntity
  8
0
  6
Continuous
 62
     7
370
    25
100
AcDbLine
 10
6473.1795099119
 20
5083.9065613739
 30
0.0
 11
6473.1795099119
 21
5343.4923478116
 31
0.0
  0
SPLINE
  5
20D
330
1F
100
AcDbEntity
  8
0
  6
Continuous
 62
     7
370
    25
100
AcDbSpline
210
0.0
220
0.0
230
1.0
 70
     8
 71
     3
 72
    11
 73
     7
 74
     0
 42
0.00000001
 43
0.00000001
 40
0.0
 40
0.0
 40
0.0
 40
0.0
 40
0.2500000000000047
 40
0.5000000000000011
 40
0.7499999999999996
 40
0.9999999999999999
 40
0.9999999999999999
 40
0.9999999999999999
 40
0.9999999999999999
 10
6471.179509911872
 20
5343.199454592737
 30
0.0
 10
6471.209573057447
 20
5343.223862360971
 30
0.0
 10
6471.269699348596
 20
5343.27267789744
 30
0.0
 10
6471.732197774842
 20
5343.345901202143
 30
0.0
 10
6472.393287649034
 20
5343.419124506847
 30
0.0
 10
6472.91743582426
 20
5343.467940043316
 30
0.0
 10
6473.179509911873
 20
5343.492347811551
 30
0.0
  0
LINE
  5
20E
330
1F
100
AcDbEntity
  8
0
  6
Continuous
 62
     7
370
    25
100
AcDbLine
 10
6471.1795099119
 20
5084.1994545927
 30
0.0
 11
6471.1795099119
 21
5343.1994545927
 31
0.0
  0
SPLINE
  5
20F
330
1F
100
AcDbEntity
  8
0
  6
Continuous
 62
     7
370
    25
100
AcDbSpline
210
0.0
220
0.0
230
1.0
 70
     8
 71
     3
 72
    11
 73
     7
 74
     0
 42
0.00000001
 43
0.00000001
 40
0.0
 40
0.0
 40
0.0
 40
0.0
 40
0.2499999999999989
 40
0.4999999999999992
 40
0.7499999999999994
 40
1.0
 40
1.0
 40
1.0
 40
1.0
 10
6473.179509911873
 20
5083.906561373923
 30
0.0
 10
6472.91743582426
 20
5083.930969142159
 30
0.0
 10
6472.393287649034
 20
5083.979784678626
 30
0.0
 10
6471.732197774842
 20
5084.053007983331
 30
0.0
 10
6471.269699348596
 20
5084.126231288034
 30
0.0
 10
6471.209573057447
 20
5084.175046824503
 30
0.0
 10
6471.179509911872
 20
5084.199454592736
 30
0.0
  0
LINE
  5
210
330
1F
100
AcDbEntity
  8
0
  6
Continuous
 62
     7
370
    25
100
AcDbLine
 10
6593.1795099119
 20
5085.9065613739
 30
0.0
 11
6591.1795099119
 21
5085.9065613739
 31
0.0
  0
LINE
  5
211
330
1F
100
AcDbEntity
  8
0
  6
Continuous
 62
     7
370
    25
100
AcDbLine
 10
6591.1795099119
 20
5097.1994545927
 30
0.0
 11
6593.1795099119
 21
5097.1994545927
 31
0.0
  0
LINE
  5
212
330
1F
100
AcDbEntity
  8
0
  6
Continuous
 62
     7
370
    25
100
AcDbLine
 10
6591.1795099119
 20
5341.4923478116
 30
0.0
 11
6593.1795099119
 21
5341.4923478116
 31
0.0
  0
LINE
  5
213
330
1F
100
AcDbEntity
  8
0
  6
Continuous
 62
     7
370
    25
100
AcDbLine
 10
6593.1795099119
 20
5330.1994545927
 30
0.0
 11
6591.1795099119
 21
5330.1994545927
 31
0.0
  0
SPLINE
  5
214
330
1F
100
AcDbEntity
  8
0
  6
Continuous
 62
     7
370
    25
100
AcDbSpline
210
0.0
220
0.0
230
1.0
 70
     8
 71
     3
 72
    11
 73
     7
 74
     0
 42
0.00000001
 43
0.00000001
 40
0.0
 40
0.0
 40
0.0
 40
0.0
 40
0.2499999999999963
 40
0.4999999999999995
 40
0.7500000000000002
 40
1.0
 40
1.0
 40
1.0
 40
1.0
 10
6471.179509911872
 20
5084.199454592736
 30
0.0
 10
6471.209573057447
 20
5083.937380505124
 30
0.0
 10
6471.269699348596
 20
5083.413232329899
 30
0.0
 10
6471.732197774842
 20
5082.752142455705
 30
0.0
 10
6472.393287649034
 20
5082.289644029461
 30
0.0
 10
6472.91743582426
 20
5082.229517738312
 30
0.0
 10
6473.179509911873
 20
5082.199454592737
 30
0.0
  0
SPLINE
  5
215
330
1F
100
AcDbEntity
  8
0
  6
Continuous
 62
     7
370
    25
100
AcDbSpline
210
0.0
220
0.0
230
1.0
 70
     8
 71
     3
 72
    11
 73
     7
 74
     0
 42
0.00000001
 43
0.00000001
 40
0.0
 40
0.0
 40
0.0
 40
0.0
 40
0.1388156110511866
 40
0.4258770740341278
 40
0.7129385370170653
 40
1.0
 40
1.0
 40
1.0
 40
1.0
 10
6472.218820460335
 20
5084.001827119994
 30
0.0
 10
6472.22774707235
 20
5083.939018102441
 30
0.0
 10
6472.255133325073
 20
5083.746324208608
 30
0.0
 10
6472.459018213745
 20
5083.476862063476
 30
0.0
 10
6472.785607687856
 20
5083.244283426285
 30
0.0
 10
6473.048209170533
 20
5083.214397537253
 30
0.0
 10
6473.179509911873
 20
5083.199454592736
 30
0.0
  0
LINE
  5
216
330
1F
100
AcDbEntity
  8
0
  6
Continuous
 62
     7
370
    25
100
AcDbLine
 10
6473.1795099119
 20
5082.1994545927
 30
0.0
 11
6473.1795099119
 21
5083.1994545927
 31
0.0
  0
LINE
  5
217
330
1F
100
AcDbEntity
  8
0
  6
Continuous
 62
     7
370
    25
100
AcDbLine
 10
6473.1795099119
 20
5082.1994545927
 30
0.0
 11
6591.1795099119
 21
5082.1994545927
 31
0.0
  0
LINE
  5
218
330
1F
100
AcDbEntity
  8
0
  6
Continuous
 62
     7
370
    25
100
AcDbLine
 10
6473.1795099119
 20
5083.1994545927
 30
0.0
 11
6591.1795099119
 21
5083.1994545927
 31
0.0
  0
LINE
  5
219
330
1F
100
AcDbEntity
  8
0
  6
Continuous
 62
     7
370
    25
100
AcDbLine
 10
6591.1795099119
 20
5083.1994545927
 30
0.0
 11
6591.1795099119
 21
5082.1994545927
 31
0.0
  0
LINE
  5
21A
330
1F
100
AcDbEntity
  8
0
  6
Continuous
 62
     7
370
    25
100
AcDbLine
 10
6473.1795099119
 20
5345.1994545927
 30
0.0
 11
6473.1795099119
 21
5344.1994545927
 31
0.0
  0
SPLINE
  5
21B
330
1F
100
AcDbEntity
  8
0
  6
Continuous
 62
     7
370
    25
100
AcDbSpline
210
0.0
220
0.0
230
1.0
 70
     8
 71
     3
 72
    11
 73
     7
 74
     0
 42
0.00000001
 43
0.00000001
 40
0.0
 40
0.0
 40
0.0
 40
0.0
 40
0.2870614629829402
 40
0.5741229259658814
 40
0.8611843889488321
 40
1.0
 40
1.0
 40
1.0
 40
1.0
 10
6473.179509911873
 20
5344.199454592736
 30
0.0
 10
6473.048209170533
 20
5344.184511648221
 30
0.0
 10
6472.785607687856
 20
5344.154625759188
 30
0.0
 10
6472.459018213745
 20
5343.922047121998
 30
0.0
 10
6472.255133325073
 20
5343.652584976865
 30
0.0
 10
6472.22774707235
 20
5343.459891083033
 30
0.0
 10
6472.218820460335
 20
5343.397082065479
 30
0.0
  0
SPLINE
  5
21C
330
1F
100
AcDbEntity
  8
0
  6
Continuous
 62
     7
370
    25
100
AcDbSpline
210
0.0
220
0.0
230
1.0
 70
     8
 71
     3
 72
    11
 73
     7
 74
     0
 42
0.00000001
 43
0.00000001
 40
0.0
 40
0.0
 40
0.0
 40
0.0
 40
0.2500000000000002
 40
0.4999999999999999
 40
0.7500000000000038
 40
1.0
 40
1.0
 40
1.0
 40
1.0
 10
6473.179509911873
 20
5345.199454592736
 30
0.0
 10
6472.91743582426
 20
5345.169391447163
 30
0.0
 10
6472.393287649034
 20
5345.109265156013
 30
0.0
 10
6471.732197774842
 20
5344.646766729767
 30
0.0
 10
6471.269699348596
 20
5343.985676855575
 30
0.0
 10
6471.209573057447
 20
5343.461528680349
 30
0.0
 10
6471.179509911872
 20
5343.199454592737
 30
0.0
  0
LINE
  5
21D
330
1F
100
AcDbEntity
  8
0
  6
Continuous
 62
     7
370
    25
100
AcDbLine
 10
6591.1795099119
 20
5344.1994545927
 30
0.0
 11
6591.1795099119
 21
5345.1994545927
 31
0.0
  0
LINE
  5
21E
330
1F
100
AcDbEntity
  8
0
  6
Continuous
 62
     7
370
    25
100
AcDbLine
 10
6473.1795099119
 20
5344.1994545927
 30
0.0
 11
6591.1795099119
 21
5344.1994545927
 31
0.0
  0
LINE
  5
21F
330
1F
100
AcDbEntity
  8
0
  6
Continuous
 62
     7
370
    25
100
AcDbLine
 10
6473.1795099119
 20
5345.1994545927
 30
0.0
 11
6591.1795099119
 21
5345.1994545927
 31
0.0
  0
LINE
  5
220
330
1F
100
AcDbEntity
  8
0
  6
Continuous
 62
     7
370
    25
100
AcDbLine
 10
6567.1795099119
 20
5083.2065613739
 30
0.0
 11
6567.1795099119
 21
5083.9065613739
 31
0.0
  0
LINE
  5
221
330
1F
100
AcDbEntity
  8
0
  6
Continuous
 62
     7
370
    25
100
AcDbLine
 10
6567.1795099119
 20
5083.2065613739
 30
0.0
 11
6591.1795099119
 21
5083.2065613739
 31
0.0
  0
LINE
  5
222
330
1F
100
AcDbEntity
  8
0
  6
Continuous
 62
     7
370
    25
100
AcDbLine
 10
6567.1795099119
 20
5344.1923478116
 30
0.0
 11
6567.1795099119
 21
5343.4923478116
 31
0.0
  0
LINE
  5
223
330
1F
100
AcDbEntity
  8
0
  6
Continuous
 62
     7
370
    25
100
AcDbLine
 10
6591.1795099119
 20
5344.1923478116
 30
0.0
 11
6567.1795099119
 21
5344.1923478116
 31
0.0
  0
LINE
  5
224
330
1F
100
AcDbEntity
  8
0
  6
Continuous
 62
     7
370
    25
100
AcDbLine
 10
6592.1795099119
 20
5085.2065613739
 30
0.0
 11
6593.1795099119
 21
5085.2065613739
 31
0.0
  0
ARC
  5
225
330
1F
100
AcDbEntity
  8
0
  6
Continuous
 62
     7
370
    25
100
AcDbCircle
 10
6591.1795099119
 20
5085.2065613739
 30
0.0
 40
1.0
100
AcDbArc
 50
270.0
 51
0.0
  0
ARC
  5
226
330
1F
100
AcDbEntity
  8
0
  6
Continuous
 62
     7
370
    25
100
AcDbCircle
 10
6591.1795099119
 20
5085.2065613739
 30
0.0
 40
1.999999999999091
100
AcDbArc
 50
270.0
 51
0.0
  0
LINE
  5
227
330
1F
100
AcDbEntity
  8
0
  6
Continuous
 62
     7
370
    25
100
AcDbLine
 10
6592.1795099119
 20
5085.2065613739
 30
0.0
 11
6592.1795099119
 21
5085.9065613739
 31
0.0
  0
LINE
  5
228
330
1F
100
AcDbEntity
  8
0
  6
Continuous
 62
     7
370
    25
100
AcDbLine
 10
6592.1795099119
 20
5342.1923478116
 30
0.0
 11
6593.1795099119
 21
5342.1923478116
 31
0.0
  0
ARC
  5
229
330
1F
100
AcDbEntity
  8
0
  6
Continuous
 62
     7
370
    25
100
AcDbCircle
 10
6591.1795099119
 20
5342.1923478116
 30
0.0
 40
1.0
100
AcDbArc
 50
0.0
 51
90.0
  0
ARC
  5
22A
330
1F
100
AcDbEntity
  8
0
  6
Continuous
 62
     7
370
    25
100
AcDbCircle
 10
6591.1795099119
 20
5342.1923478116
 30
0.0
 40
1.999999999999091
100
AcDbArc
 50
0.0
 51
90.0
  0
LINE
  5
22B
330
1F
100
AcDbEntity
  8
0
  6
Continuous
 62
     7
370
    25
100
AcDbLine
 10
6592.1795099119
 20
5342.1923478116
 30
0.0
 11
6592.1795099119
 21
5341.4923478116
 31
0.0
  0
LINE
  5
22C
330
1F
100
AcDbEntity
  8
0
  6
Continuous
 62
     7
370
    25
100
AcDbLine
 10
6599.1795099119
 20
5283.4994545927
 30
0.0
 11
6599.1795099119
 21
5261.8994545927
 31
0.0
  0
LINE
  5
22D
330
1F
100
AcDbEntity
  8
0
  6
Continuous
 62
     7
370
    25
100
AcDbLine
 10
6596.1795099119
 20
5283.4994545927
 30
0.0
 11
6599.1795099119
 21
5283.4994545927
 31
0.0
  0
LINE
  5
22E
330
1F
100
AcDbEntity
  8
0
  6
Continuous
 62
     7
370
    25
100
AcDbLine
 10
6596.1795099119
 20
5261.8994545927
 30
0.0
 11
6599.1795099119
 21
5261.8994545927
 31
0.0
  0
LINE
  5
22F
330
1F
100
AcDbEntity
  8
0
  6
Continuous
 62
     7
370
    25
100
AcDbLine
 10
6605.1795099119
 20
5282.7994545927
 30
0.0
 11
6605.1795099119
 21
5262.5994545927
 31
0.0
  0
LINE
  5
230
330
1F
100
AcDbEntity
  8
0
  6
Continuous
 62
     7
370
    25
100
AcDbLine
 10
6599.1795099119
 20
5283.4994545927
 30
0.0
 11
6599.1795099119
 21
5285.1994545927
 31
0.0
  0
LINE
  5
231
330
1F
100
AcDbEntity
  8
0
  6
Continuous
 62
     7
370
    25
100
AcDbLine
 10
6599.1795099119
 20
5260.1994545927
 30
0.0
 11
6599.1795099119
 21
5261.8994545927
 31
0.0
  0
LINE
  5
232
330
1F
100
AcDbEntity
  8
0
  6
Continuous
 62
     7
370
    25
100
AcDbLine
 10
6607.607352899
 20
5212.9906033024
 30
0.0
 11
6607.607352899
 21
5212.3203330322
 31
0.0
  0
LINE
  5
233
330
1F
100
AcDbEntity
  8
0
  6
Continuous
 62
     7
370
    25
100
AcDbLine
 10
6598.4795099119
 20
5212.9906033024
 30
0.0
 11
6607.607352899
 21
5212.9906033024
 31
0.0
  0
LINE
  5
234
330
1F
100
AcDbEntity
  8
0
  6
Continuous
 62
     7
370
    25
100
AcDbLine
 10
6598.4795099119
 20
5213.2824951943
 30
0.0
 11
6609.107352899
 21
5213.2824951943
 31
0.0
  0
LINE
  5
235
330
1F
100
AcDbEntity
  8
0
  6
Continuous
 62
     7
370
    25
100
AcDbLine
 10
6609.107352899
 20
5213.2824951943
 30
0.0
 11
6609.107352899
 21
5212.0284411403
 31
0.0
  0
LINE
  5
236
330
1F
100
AcDbEntity
  8
0
  6
Continuous
 62
     7
370
    25
100
AcDbLine
 10
6598.4795099119
 20
5212.0284411403
 30
0.0
 11
6609.107352899
 21
5212.0284411403
 31
0.0
  0
LINE
  5
237
330
1F
100
AcDbEntity
  8
0
  6
Continuous
 62
     7
370
    25
100
AcDbLine
 10
6598.4795099119
 20
5212.3203330322
 30
0.0
 11
6607.607352899
 21
5212.3203330322
 31
0.0
  0
LINE
  5
238
330
1F
100
AcDbEntity
  8
0
  6
Continuous
 62
     7
370
    25
100
AcDbLine
 10
6609.107352899
 20
5212.0284411403
 30
0.0
 11
6609.107352899
 21
5206.0636062783
 31
0.0
  0
ARC
  5
239
330
1F
100
AcDbEntity
  8
0
  6
Continuous
 62
     7
370
    25
100
AcDbCircle
 10
6600.1325690553
 20
5206.0911446541
 30
0.0
 40
8.974826093189224
100
AcDbArc
 50
269.8390184703
 51
359.8241932302
  0
LINE
  5
23A
330
1F
100
AcDbEntity
  8
0
  6
Continuous
 62
     7
370
    25
100
AcDbLine
 10
6600.107352899
 20
5197.1163539854
 30
0.0
 11
6598.2795099119
 21
5197.1163539854
 31
0.0
  0
SPLINE
  5
23B
330
1F
100
AcDbEntity
  8
0
  6
Continuous
 62
     7
370
    25
100
AcDbSpline
210
0.0
220
0.0
230
1.0
 70
     8
 71
     3
 72
    11
 73
     7
 74
     0
 42
0.00000001
 43
0.00000001
 40
0.0
 40
0.0
 40
0.0
 40
0.0
 40
0.1372802299368815
 40
0.4248534866245883
 40
0.7124267433122938
 40
1.0
 40
1.0
 40
1.0
 40
1.0
 10
6591.179509911873
 20
5326.237722935909
 30
0.0
 10
6591.334496407271
 20
5326.249374589732
 30
0.0
 10
6591.81414706768
 20
5326.285434011787
 30
0.0
 10
6592.485946903616
 20
5326.345901202079
 30
0.0
 10
6593.067448910854
 20
5326.419124506782
 30
0.0
 10
6593.142156244866
 20
5326.467940043251
 30
0.0
 10
6593.179509911872
 20
5326.492347811486
 30
0.0
  0
SPLINE
  5
23C
330
1F
100
AcDbEntity
  8
0
  6
Continuous
 62
     7
370
    25
100
AcDbSpline
210
0.0
220
0.0
230
1.0
 70
     8
 71
     3
 72
    12
 73
     8
 74
     0
 42
0.00000001
 43
0.00000001
 40
0.0
 40
0.0
 40
0.0
 40
0.0
 40
0.220939632601074
 40
0.471307129304633
 40
0.7216805702679453
 40
0.972053902972968
 40
0.9999999999999999
 40
0.9999999999999999
 40
0.9999999999999999
 40
0.9999999999999999
 10
6593.179509911872
 20
5101.906561373859
 30
0.0
 10
6593.157189092261
 20
5101.861227946745
 30
0.0
 10
6593.109574450691
 20
5101.764522945733
 30
0.0
 10
6592.713824942109
 20
5101.616170152473
 30
0.0
 10
6592.082257914078
 20
5101.461923876938
 30
0.0
 10
6591.525583055366
 20
5101.353121509369
 30
0.0
 10
6591.211088371743
 20
5101.296083669213
 30
0.0
 10
6591.179509911873
 20
5101.290356490853
 30
0.0
  0
SPLINE
  5
23D
330
1F
100
AcDbEntity
  8
0
  6
Continuous
 62
     7
370
    25
100
AcDbSpline
210
0.0
220
0.0
230
1.0
 70
     8
 71
     3
 72
    10
 73
     6
 74
     0
 42
0.00000001
 43
0.00000001
 40
0.0
 40
0.0
 40
0.0
 40
0.0
 40
0.2419603241402195
 40
0.6209801620701122
 40
1.0
 40
1.0
 40
1.0
 40
1.0
 10
6591.179509911873
 20
5326.299156591989
 30
0.0
 10
6591.251798828953
 20
5326.314738128685
 30
0.0
 10
6591.437325045304
 20
5326.354727433617
 30
0.0
 10
6591.632565311263
 20
5326.419124506783
 30
0.0
 10
6591.663861711669
 20
5326.467940043251
 30
0.0
 10
6591.679509911872
 20
5326.492347811486
 30
0.0
  0
LINE
  5
23E
330
1F
100
AcDbEntity
  8
0
  6
Continuous
 62
     7
370
    25
100
AcDbLine
 10
6593.1795099119
 20
5326.4923478115
 30
0.0
 11
6591.6795099119
 21
5326.4923478115
 31
0.0
  0
SPLINE
  5
23F
330
1F
100
AcDbEntity
  8
0
  6
Continuous
 62
     7
370
    25
100
AcDbSpline
210
0.0
220
0.0
230
1.0
 70
     8
 71
     3
 72
    11
 73
     7
 74
     0
 42
0.00000001
 43
0.00000001
 40
0.0
 40
0.0
 40
0.0
 40
0.0
 40
0.1994930793050685
 40
0.5563552932329372
 40
0.9132173846207235
 40
1.0
 40
1.0
 40
1.0
 40
1.0
 10
6591.179509911873
 20
5100.35295245342
 30
0.0
 10
6591.240245233837
 20
5100.386017208439
 30
0.0
 10
6591.409626637836
 20
5100.478229687883
 30
0.0
 10
6591.593503731754
 20
5100.748773861415
 30
0.0
 10
6591.674505468488
 20
5101.016758571478
 30
0.0
 10
6591.67869114054
 20
5101.169563902889
 30
0.0
 10
6591.679509911872
 20
5101.199454592672
 30
0.0
  0
LINE
  5
240
330
1F
100
AcDbEntity
  8
0
  6
Continuous
 62
     7
370
    25
100
AcDbLine
 10
6593.1795099119
 20
5101.1994545927
 30
0.0
 11
6591.6795099119
 21
5101.1994545927
 31
0.0
  0
SPLINE
  5
241
330
1F
100
AcDbEntity
  8
0
  6
Continuous
 62
     7
370
    25
100
AcDbSpline
210
0.0
220
0.0
230
1.0
 70
     8
 71
     3
 72
    12
 73
     8
 74
     0
 42
0.00000001
 43
0.00000001
 40
0.0
 40
0.0
 40
0.0
 40
0.0
 40
0.0725185312067188
 40
0.3230448938897195
 40
0.5735772046043024
 40
0.824109406991899
 40
1.0
 40
1.0
 40
1.0
 40
1.0
 10
6591.179509911873
 20
5098.775586607812
 30
0.0
 10
6591.261468137872
 20
5098.7854544067
 30
0.0
 10
6591.62656359666
 20
5098.829412026789
 30
0.0
 10
6592.211196509284
 20
5099.173811812929
 30
0.0
 10
6592.805505345126
 20
5099.792742298636
 30
0.0
 10
6593.130722354912
 20
5100.515116315374
 30
0.0
 10
6593.165262723464
 20
5100.999610677977
 30
0.0
 10
6593.179509911872
 20
5101.199454592672
 30
0.0
  0
LINE
  5
242
330
1F
100
AcDbEntity
  8
0
  6
Continuous
 62
     7
370
    25
100
AcDbLine
 10
6591.6795099119
 20
5101.1994545927
 30
0.0
 11
6591.6795099119
 21
5101.3875954412
 31
0.0
  0
LINE
  5
243
330
1F
100
AcDbEntity
  8
0
  6
Continuous
 62
     7
370
    25
100
AcDbLine
 10
6593.1795099119
 20
5074.1994545927
 30
0.0
 11
6595.1795099119
 21
5074.1994545927
 31
0.0
  0
LINE
  5
244
330
1F
100
AcDbEntity
  8
0
  6
Continuous
 62
     7
370
    25
100
AcDbLine
 10
6595.1795099119
 20
5071.1994545927
 30
0.0
 11
6595.1795099119
 21
5074.1994545927
 31
0.0
  0
LINE
  5
245
330
1F
100
AcDbEntity
  8
0
  6
Continuous
 62
     7
370
    25
100
AcDbLine
 10
6595.1795099119
 20
5071.1994545927
 30
0.0
 11
6593.1795099119
 21
5071.1994545927
 31
0.0
  0
LINE
  5
246
330
1F
100
AcDbEntity
  8
0
  6
Continuous
 62
     7
370
    25
100
AcDbLine
 10
6593.1795099119
 20
5071.1994545927
 30
0.0
 11
6593.1795099119
 21
5074.1994545927
 31
0.0
  0
LINE
  5
247
330
1F
100
AcDbEntity
  8
0
  6
Continuous
 62
     7
370
    25
100
AcDbLine
 10
6595.1795099119
 20
5353.1994545927
 30
0.0
 11
6593.1795099119
 21
5353.1994545927
 31
0.0
  0
LINE
  5
248
330
1F
100
AcDbEntity
  8
0
  6
Continuous
 62
     7
370
    25
100
AcDbLine
 10
6595.1795099119
 20
5074.1994545927
 30
0.0
 11
6595.1795099119
 21
5353.1994545927
 31
0.0
  0
LINE
  5
249
330
1F
100
AcDbEntity
  8
0
  6
Continuous
 62
     7
370
    25
100
AcDbLine
 10
6593.1795099119
 20
5353.1994545927
 30
0.0
 11
6593.1795099119
 21
5074.1994545927
 31
0.0
  0
LINE
  5
24A
330
1F
100
AcDbEntity
  8
0
  6
Continuous
 62
     7
370
    25
100
AcDbLine
 10
6596.1795099119
 20
5353.1994545927
 30
0.0
 11
6596.1795099119
 21
5074.1994545927
 31
0.0
  0
LINE
  5
24B
330
1F
100
AcDbEntity
  8
0
  6
Continuous
 62
     7
370
    25
100
AcDbLine
 10
6596.1795099119
 20
5074.1994545927
 30
0.0
 11
6595.1795099119
 21
5074.1994545927
 31
0.0
  0
LINE
  5
24C
330
1F
100
AcDbEntity
  8
0
  6
Continuous
 62
     7
370
    25
100
AcDbLine
 10
6596.1795099119
 20
5353.1994545927
 30
0.0
 11
6595.1795099119
 21
5353.1994545927
 31
0.0
  0
LINE
  5
24D
330
1F
100
AcDbEntity
  8
0
  6
Continuous
 62
     7
370
    25
100
AcDbLine
 10
6596.1795099119
 20
5074.1994545927
 30
0.0
 11
6596.1795099119
 21
5072.1994545927
 31
0.0
  0
LINE
  5
24E
330
1F
100
AcDbEntity
  8
0
  6
Continuous
 62
     7
370
    25
100
AcDbLine
 10
6596.1795099119
 20
5072.1994545927
 30
0.0
 11
6595.1795099119
 21
5071.1994545927
 31
0.0
  0
LINE
  5
24F
330
1F
100
AcDbEntity
  8
0
  6
Continuous
 62
     7
370
    25
100
AcDbLine
 10
6593.1795099119
 20
5356.1994545927
 30
0.0
 11
6595.1795099119
 21
5356.1994545927
 31
0.0
  0
LINE
  5
250
330
1F
100
AcDbEntity
  8
0
  6
Continuous
 62
     7
370
    25
100
AcDbLine
 10
6595.1795099119
 20
5353.1994545927
 30
0.0
 11
6595.1795099119
 21
5356.1994545927
 31
0.0
  0
LINE
  5
251
330
1F
100
AcDbEntity
  8
0
  6
Continuous
 62
     7
370
    25
100
AcDbLine
 10
6593.1795099119
 20
5353.1994545927
 30
0.0
 11
6593.1795099119
 21
5356.1994545927
 31
0.0
  0
LINE
  5
252
330
1F
100
AcDbEntity
  8
0
  6
Continuous
 62
     7
370
    25
100
AcDbLine
 10
6596.1795099119
 20
5355.1994545927
 30
0.0
 11
6596.1795099119
 21
5353.1994545927
 31
0.0
  0
LINE
  5
253
330
1F
100
AcDbEntity
  8
0
  6
Continuous
 62
     7
370
    25
100
AcDbLine
 10
6596.1795099119
 20
5355.1994545927
 30
0.0
 11
6595.1795099119
 21
5356.1994545927
 31
0.0
  0
LINE
  5
254
330
1F
100
AcDbEntity
  8
0
  6
Continuous
 62
     7
370
    25
100
AcDbLine
 10
6597.2795099119
 20
5194.6994545927
 30
0.0
 11
6597.2795099119
 21
5218.6994545927
 31
0.0
  0
LINE
  5
255
330
1F
100
AcDbEntity
  8
0
  6
Continuous
 62
     7
370
    25
100
AcDbLine
 10
6598.2795099119
 20
5217.6994545927
 30
0.0
 11
6598.2795099119
 21
5195.6994545927
 31
0.0
  0
SPLINE
  5
256
330
1F
100
AcDbEntity
  8
0
  6
Continuous
 62
     7
370
    25
100
AcDbSpline
210
0.0
220
0.0
230
1.0
 70
     8
 71
     3
 72
    13
 73
     9
 74
     0
 42
0.00000001
 43
0.00000001
 40
0.0
 40
0.0
 40
0.0
 40
0.0
 40
0.0254342784919342
 40
0.2391405405228668
 40
0.4528843033372799
 40
0.6670512278740933
 40
0.8818628295038904
 40
1.0
 40
1.0
 40
1.0
 40
1.0
 10
6598.279509911872
 20
5216.282206898499
 30
0.0
 10
6598.282165927032
 20
5216.282172886215
 30
0.0
 10
6598.307138559977
 20
5216.281853092755
 30
0.0
 10
6598.354426393689
 20
5216.271664496243
 30
0.0
 10
6598.412809461289
 20
5216.236280243194
 30
0.0
 10
6598.456038875
 20
5216.183459486288
 30
0.0
 10
6598.47690479186
 20
5216.128720310473
 30
0.0
 10
6598.478827643866
 20
5216.093915487336
 30
0.0
 10
6598.479509911872
 20
5216.081566009971
 30
0.0
  0
LINE
  5
257
330
1F
100
AcDbEntity
  8
0
  6
Continuous
 62
     7
370
    25
100
AcDbLine
 10
6598.4795099119
 20
5216.08156601
 30
0.0
 11
6598.4795099119
 21
5205.2994545927
 31
0.0
  0
LINE
  5
258
330
1F
100
AcDbEntity
  8
0
  6
Continuous
 62
     8
370
    25
100
AcDbLine
 10
6596.1832630731
 20
5334.7034305868
 30
0.0
 11
6596.1795099119
 21
5334.7034305868
 31
0.0
  0
LINE
  5
259
330
1F
100
AcDbEntity
  8
0
  6
Continuous
 62
     8
370
    25
100
AcDbLine
 10
6596.1795099119
 20
5337.6954785987
 30
0.0
 11
6596.1832630731
 21
5337.6954785987
 31
0.0
  0
LINE
  5
25A
330
1F
100
AcDbEntity
  8
0
  6
Continuous
 62
     8
370
    25
100
AcDbLine
 10
6596.1832630731
 20
5089.7034305868
 30
0.0
 11
6596.1795099119
 21
5089.7034305868
 31
0.0
  0
LINE
  5
25B
330
1F
100
AcDbEntity
  8
0
  6
Continuous
 62
     8
370
    25
100
AcDbLine
 10
6596.1795099119
 20
5092.6954785986
 30
0.0
 11
6596.1832630731
 21
5092.6954785986
 31
0.0
  0
LINE
  5
25C
330
1F
100
AcDbEntity
  8
0
  6
Continuous
 62
     8
370
    25
100
AcDbLine
 10
6591.1795099119
 20
5083.9065613739
 30
0.0
 11
6591.1795099119
 21
5083.2065613739
 31
0.0
  0
LINE
  5
25D
330
1F
100
AcDbEntity
  8
0
  6
Continuous
 62
     8
370
    25
100
AcDbLine
 10
6591.1795099119
 20
5343.4923478116
 30
0.0
 11
6591.1795099119
 21
5344.1923478116
 31
0.0
  0
SPLINE
  5
25E
330
1F
100
AcDbEntity
  8
0
  6
Continuous
 62
     7
370
    25
100
AcDbSpline
210
0.0
220
0.0
230
1.0
 70
     8
 71
     3
 72
    14
 73
    10
 74
     0
 42
0.00000001
 43
0.00000001
 40
0.0
 40
0.0
 40
0.0
 40
0.0
 40
0.1611951833232341
 40
0.3306506824963016
 40
0.4833998874519618
 40
0.6563844232457876
 40
0.8106064300556534
 40
0.9639237897477917
 40
1.0
 40
1.0
 40
1.0
 40
1.0
 10
6249.518755336177
 20
4937.089426145709
 30
0.0
 10
6249.518755336208
 20
4936.375037457079
 30
0.0
 10
6249.518755336274
 20
4934.909651813457
 30
0.0
 10
6249.518755336091
 20
4932.785943973024
 30
0.0
 10
6249.518755335915
 20
4930.568928353256
 30
0.0
 10
6249.518755335977
 20
4928.405171277735
 30
0.0
 10
6249.518755336075
 20
4926.242679768943
 30
0.0
 10
6249.518755336124
 20
4924.699088308495
 30
0.0
 10
6249.518755336123
 20
4923.8659354109
 30
0.0
 10
6249.518755336123
 20
4923.707234146043
 30
0.0
  0
SPLINE
  5
25F
330
1F
100
AcDbEntity
  8
0
  6
Continuous
 62
     7
370
    25
100
AcDbSpline
210
0.0
220
0.0
230
1.0
 70
     8
 71
     3
 72
    13
 73
     9
 74
     0
 42
0.00000001
 43
0.00000001
 40
0.0
 40
0.0
 40
0.0
 40
0.0
 40
0.0533191481000599
 40
0.2550130209708373
 40
0.4565118204254296
 40
0.6562121769285005
 40
0.8618378968349301
 40
0.9999999999999999
 40
0.9999999999999999
 40
0.9999999999999999
 40
0.9999999999999999
 10
6253.518755336118
 20
4923.812685063345
 30
0.0
 10
6253.518755336119
 20
4924.041628334156
 30
0.0
 10
6253.518755336121
 20
4925.136610478483
 30
0.0
 10
6253.518755336035
 20
4927.151848960124
 30
0.0
 10
6253.518755335912
 20
4929.806948838353
 30
0.0
 10
6253.518755336035
 20
4932.474556316567
 30
0.0
 10
6253.518755336278
 20
4934.807725440038
 30
0.0
 10
6253.518755336209
 20
4936.298459900905
 30
0.0
 10
6253.518755336183
 20
4936.897559096839
 30
0.0
  0
ARC
  5
260
330
1F
100
AcDbEntity
  8
0
  6
Continuous
 62
     7
370
    25
100
AcDbCircle
 10
6260.2687553361
 20
4950.3975590968
 30
0.0
 40
2.25
100
AcDbArc
 50
0.0
 51
90.0
  0
ARC
  5
261
330
1F
100
AcDbEntity
  8
0
  6
Continuous
 62
     7
370
    25
100
AcDbCircle
 10
6242.7687553361
 20
4950.3975590968
 30
0.0
 40
2.25
100
AcDbArc
 50
90.0
 51
180.0
  0
LINE
  5
262
330
1F
100
AcDbEntity
  8
0
  6
Continuous
 62
     7
370
    25
100
AcDbLine
 10
6324.4963804945
 20
4825.3975590968
 30
0.0
 11
6324.7419796867
 21
4825.3747025804
 31
0.0
  0
LINE
  5
263
330
1F
100
AcDbEntity
  8
0
  6
Continuous
 62
     7
370
    25
100
AcDbLine
 10
6328.2962520492
 20
4825.3747653253
 30
0.0
 11
6328.5411301777
 21
4825.3975590968
 31
0.0
  0
LINE
  5
264
330
1F
100
AcDbEntity
  8
0
  6
Continuous
 62
     7
370
    25
100
AcDbLine
 10
6325.7687553361
 20
4825.3786787335
 30
0.0
 11
6325.7687553361
 21
4825.311283203
 31
0.0
  0
LINE
  5
265
330
1F
100
AcDbEntity
  8
0
  6
Continuous
 62
     7
370
    25
100
AcDbLine
 10
6327.2687553361
 20
4825.311283203
 30
0.0
 11
6327.2687553361
 21
4825.3788245914
 31
0.0
  0
ARC
  5
266
330
1F
100
AcDbEntity
  8
0
  6
Continuous
 62
     7
370
    25
100
AcDbCircle
 10
6326.5187553361
 20
4845.7975590968
 30
0.0
 40
20.5
100
AcDbArc
 50
267.9033450422
 51
270.0
  0
ARC
  5
267
330
1F
100
AcDbEntity
  8
0
  6
Continuous
 62
     7
370
    25
100
AcDbCircle
 10
6326.5187553361
 20
4845.7975590968
 30
0.0
 40
20.5
100
AcDbArc
 50
270.0
 51
272.0966549578
  0
LINE
  5
268
330
1F
100
AcDbEntity
  8
0
  6
Continuous
 62
     7
370
    25
100
AcDbLine
 10
6324.7473799416
 20
4825.3750009668
 30
0.0
 11
6324.7473799416
 21
4825.3975590968
 31
0.0
  0
LINE
  5
269
330
1F
100
AcDbEntity
  8
0
  6
Continuous
 62
     7
370
    25
100
AcDbLine
 10
6328.2901307306
 20
4825.3975590968
 30
0.0
 11
6328.2901307306
 21
4825.3750009668
 31
0.0
  0
LINE
  5
26A
330
1F
100
AcDbEntity
  8
0
  6
Continuous
 62
     7
370
    25
100
AcDbLine
 10
6219.4963804945
 20
4825.3975590968
 30
0.0
 11
6219.7419796867
 21
4825.3747025804
 31
0.0
  0
LINE
  5
26B
330
1F
100
AcDbEntity
  8
0
  6
Continuous
 62
     7
370
    25
100
AcDbLine
 10
6223.2962520491
 20
4825.3747653253
 30
0.0
 11
6223.5411301777
 21
4825.3975590968
 31
0.0
  0
LINE
  5
26C
330
1F
100
AcDbEntity
  8
0
  6
Continuous
 62
     7
370
    25
100
AcDbLine
 10
6220.7687553361
 20
4825.3786787335
 30
0.0
 11
6220.7687553361
 21
4825.311283203
 31
0.0
  0
LINE
  5
26D
330
1F
100
AcDbEntity
  8
0
  6
Continuous
 62
     7
370
    25
100
AcDbLine
 10
6222.2687553361
 20
4825.311283203
 30
0.0
 11
6222.2687553361
 21
4825.3788245914
 31
0.0
  0
ARC
  5
26E
330
1F
100
AcDbEntity
  8
0
  6
Continuous
 62
     7
370
    25
100
AcDbCircle
 10
6221.5187553361
 20
4845.7975590968
 30
0.0
 40
20.5
100
AcDbArc
 50
267.9033450422
 51
270.0
  0
ARC
  5
26F
330
1F
100
AcDbEntity
  8
0
  6
Continuous
 62
     7
370
    25
100
AcDbCircle
 10
6221.5187553361
 20
4845.7975590968
 30
0.0
 40
20.5
100
AcDbArc
 50
270.0
 51
272.0966549578
  0
LINE
  5
270
330
1F
100
AcDbEntity
  8
0
  6
Continuous
 62
     7
370
    25
100
AcDbLine
 10
6223.2901307306
 20
4825.3975590968
 30
0.0
 11
6223.2901307306
 21
4825.3750009668
 31
0.0
  0
LINE
  5
271
330
1F
100
AcDbEntity
  8
0
  6
Continuous
 62
     7
370
    25
100
AcDbLine
 10
6219.7473799416
 20
4825.3750009668
 30
0.0
 11
6219.7473799416
 21
4825.3975590968
 31
0.0
  0
LINE
  5
272
330
1F
100
AcDbEntity
  8
0
  6
Continuous
 62
     7
370
    25
100
AcDbLine
 10
6311.7187553361
 20
4822.3975590968
 30
0.0
 11
6311.7187553361
 21
4825.3975590968
 31
0.0
  0
LINE
  5
273
330
1F
100
AcDbEntity
  8
0
  6
Continuous
 62
     7
370
    25
100
AcDbLine
 10
6311.7187553361
 20
4828.3975590968
 30
0.0
 11
6311.7187553361
 21
4829.6050059884
 31
0.0
  0
LINE
  5
274
330
1F
100
AcDbEntity
  8
0
  6
Continuous
 62
     7
370
    25
100
AcDbLine
 10
6289.1187553361
 20
4822.3975590968
 30
0.0
 11
6289.1187553361
 21
4816.3975590968
 31
0.0
  0
LINE
  5
275
330
1F
100
AcDbEntity
  8
0
  6
Continuous
 62
     7
370
    25
100
AcDbLine
 10
6309.3187553361
 20
4816.3975590968
 30
0.0
 11
6309.3187553361
 21
4822.3975590968
 31
0.0
  0
ARC
  5
276
330
1F
100
AcDbEntity
  8
0
  6
Continuous
 62
     7
370
    25
100
AcDbCircle
 10
6299.2187553361
 20
4840.9000590968
 30
0.0
 40
26.50249999999977
100
AcDbArc
 50
247.5984044242
 51
270.0
  0
ARC
  5
277
330
1F
100
AcDbEntity
  8
0
  6
Continuous
 62
     7
370
    25
100
AcDbCircle
 10
6299.2187553361
 20
4840.9000590968
 30
0.0
 40
26.5024999999996
100
AcDbArc
 50
270.0
 51
292.4015955758
  0
LINE
  5
278
330
1F
100
AcDbEntity
  8
0
  6
Continuous
 62
     7
370
    25
100
AcDbLine
 10
6268.9251077451
 20
4828.3975590968
 30
0.0
 11
6268.9251077451
 21
4829.3975590968
 31
0.0
  0
LINE
  5
279
330
1F
100
AcDbEntity
  8
0
  6
Continuous
 62
     7
370
    25
100
AcDbLine
 10
6264.9251077451
 20
4829.3975590968
 30
0.0
 11
6264.9251077451
 21
4828.3975590968
 31
0.0
  0
LINE
  5
27A
330
1F
100
AcDbEntity
  8
0
  6
Continuous
 62
     7
370
    25
100
AcDbLine
 10
6268.4251077451
 20
4829.6475590968
 30
0.0
 11
6268.4251077451
 21
4829.7100590982
 31
0.0
  0
LINE
  5
27B
330
1F
100
AcDbEntity
  8
0
  6
Continuous
 62
     7
370
    25
100
AcDbLine
 10
6265.4251077451
 20
4829.9600590982
 30
0.0
 11
6265.4251077451
 21
4829.8975590968
 31
0.0
  0
SPLINE
  5
27C
330
1F
100
AcDbEntity
  8
0
  6
Continuous
 62
     7
370
    25
100
AcDbSpline
210
0.0
220
0.0
230
1.0
 70
     8
 71
     3
 72
     9
 73
     5
 74
     0
 42
0.00000001
 43
0.00000001
 40
0.0
 40
0.0
 40
0.0
 40
0.0
 40
0.5122178929331181
 40
1.0
 40
1.0
 40
1.0
 40
1.0
 10
6265.43015216495
 20
4830.391505278911
 30
0.0
 10
6265.475501973328
 20
4830.365217449511
 30
0.0
 10
6265.564038139293
 20
4830.313895873748
 30
0.0
 10
6265.652561614816
 20
4830.262514284307
 30
0.0
 10
6265.695741782232
 20
4830.237451264346
 30
0.0
  0
SPLINE
  5
27D
330
1F
100
AcDbEntity
  8
0
  6
Continuous
 62
     7
370
    25
100
AcDbSpline
210
0.0
220
0.0
230
1.0
 70
     8
 71
     3
 72
     9
 73
     5
 74
     0
 42
0.00000001
 43
0.00000001
 40
0.0
 40
0.0
 40
0.0
 40
0.0
 40
0.5122178929331223
 40
1.0
 40
1.0
 40
1.0
 40
1.0
 10
6265.43015216495
 20
4829.891505278911
 30
0.0
 10
6265.475501973328
 20
4829.865217449512
 30
0.0
 10
6265.564038139293
 20
4829.813895873748
 30
0.0
 10
6265.652561614816
 20
4829.762514284307
 30
0.0
 10
6265.695741782232
 20
4829.737451264346
 30
0.0
  0
SPLINE
  5
27E
330
1F
100
AcDbEntity
  8
0
  6
Continuous
 62
     7
370
    25
100
AcDbSpline
210
0.0
220
0.0
230
1.0
 70
     8
 71
     3
 72
     9
 73
     5
 74
     0
 42
0.00000001
 43
0.00000001
 40
0.0
 40
0.0
 40
0.0
 40
0.0
 40
0.4999628575460082
 40
1.0
 40
1.0
 40
1.0
 40
1.0
 10
6268.143443740158
 20
4830.001329164058
 30
0.0
 10
6268.187891570752
 20
4830.02748429233
 30
0.0
 10
6268.276793836036
 20
4830.079798435027
 30
0.0
 10
6268.365486175103
 20
4830.132101809372
 30
0.0
 10
6268.409835638888
 20
4830.158255439222
 30
0.0
  0
SPLINE
  5
27F
330
1F
100
AcDbEntity
  8
0
  6
Continuous
 62
     7
370
    25
100
AcDbSpline
210
0.0
220
0.0
230
1.0
 70
     8
 71
     3
 72
     9
 73
     5
 74
     0
 42
0.00000001
 43
0.00000001
 40
0.0
 40
0.0
 40
0.0
 40
0.0
 40
0.4999628575460097
 40
1.0
 40
1.0
 40
1.0
 40
1.0
 10
6268.143443740158
 20
4829.501329164058
 30
0.0
 10
6268.187891570752
 20
4829.52748429233
 30
0.0
 10
6268.276793836036
 20
4829.579798435026
 30
0.0
 10
6268.365486175103
 20
4829.632101809372
 30
0.0
 10
6268.409835638888
 20
4829.658255439222
 30
0.0
  0
SPLINE
  5
280
330
1F
100
AcDbEntity
  8
0
  6
Continuous
 62
     7
370
    25
100
AcDbSpline
210
0.0
220
0.0
230
1.0
 70
     8
 71
     3
 72
     9
 73
     5
 74
     0
 42
0.00000001
 43
0.00000001
 40
0.0
 40
0.0
 40
0.0
 40
0.0
 40
0.4999719868336068
 40
1.0
 40
1.0
 40
1.0
 40
1.0
 10
6265.832562905094
 20
4830.154034267474
 30
0.0
 10
6265.791711844661
 20
4830.127884700411
 30
0.0
 10
6265.710005146071
 20
4830.075582635992
 30
0.0
 10
6265.627854947376
 20
4830.02328945707
 30
0.0
 10
6265.586777546741
 20
4829.99714140271
 30
0.0
  0
SPLINE
  5
281
330
1F
100
AcDbEntity
  8
0
  6
Continuous
 62
     7
370
    25
100
AcDbSpline
210
0.0
220
0.0
230
1.0
 70
     8
 71
     3
 72
     9
 73
     5
 74
     0
 42
0.00000001
 43
0.00000001
 40
0.0
 40
0.0
 40
0.0
 40
0.0
 40
0.4999719868335892
 40
1.0
 40
1.0
 40
1.0
 40
1.0
 10
6265.832562905094
 20
4829.654034267474
 30
0.0
 10
6265.791711844661
 20
4829.627884700411
 30
0.0
 10
6265.710005146071
 20
4829.575582635991
 30
0.0
 10
6265.627854947376
 20
4829.523289457069
 30
0.0
 10
6265.586777546741
 20
4829.49714140271
 30
0.0
  0
SPLINE
  5
282
330
1F
100
AcDbEntity
  8
0
  6
Continuous
 62
     7
370
    25
100
AcDbSpline
210
0.0
220
0.0
230
1.0
 70
     8
 71
     3
 72
     9
 73
     5
 74
     0
 42
0.00000001
 43
0.00000001
 40
0.0
 40
0.0
 40
0.0
 40
0.0
 40
0.5134728673986821
 40
1.0
 40
1.0
 40
1.0
 40
1.0
 10
6268.419410011533
 20
4829.716501670096
 30
0.0
 10
6268.374057303898
 20
4829.742788974858
 30
0.0
 10
6268.285731882021
 20
4829.793984094271
 30
0.0
 10
6268.197433342952
 20
4829.845238512822
 30
0.0
 10
6268.154473707926
 20
4829.870175178113
 30
0.0
  0
LINE
  5
283
330
1F
100
AcDbEntity
  8
0
  6
Continuous
 62
     7
370
    25
100
AcDbLine
 10
6265.6957417822
 20
4830.2414056624
 30
0.0
 11
6265.6957417822
 21
4830.1164056624
 31
0.0
  0
LINE
  5
284
330
1F
100
AcDbEntity
  8
0
  6
Continuous
 62
     7
370
    25
100
AcDbLine
 10
6265.6957417822
 20
4829.7414056624
 30
0.0
 11
6265.6957417822
 21
4829.6164056624
 31
0.0
  0
LINE
  5
285
330
1F
100
AcDbEntity
  8
0
  6
Continuous
 62
     7
370
    25
100
AcDbLine
 10
6268.1544737079
 20
4829.8664056624
 30
0.0
 11
6268.1544737079
 21
4829.9914056624
 31
0.0
  0
LINE
  5
286
330
1F
100
AcDbEntity
  8
0
  6
Continuous
 62
     7
370
    25
100
AcDbLine
 10
6268.1544737079
 20
4829.3664056624
 30
0.0
 11
6268.1544737079
 21
4829.4914056624
 31
0.0
  0
LINE
  5
287
330
1F
100
AcDbEntity
  8
0
  6
Continuous
 62
     7
370
    25
100
AcDbLine
 10
6314.9251077451
 20
4829.3975590968
 30
0.0
 11
6314.9251077451
 21
4828.3975590968
 31
0.0
  0
SPLINE
  5
288
330
1F
100
AcDbEntity
  8
0
  6
Continuous
 62
     7
370
    25
100
AcDbSpline
210
0.0
220
0.0
230
1.0
 70
     8
 71
     3
 72
     9
 73
     5
 74
     0
 42
0.00000001
 43
0.00000001
 40
0.0
 40
0.0
 40
0.0
 40
0.0
 40
0.5122178929331208
 40
1.0
 40
1.0
 40
1.0
 40
1.0
 10
6315.43015216495
 20
4829.891505278911
 30
0.0
 10
6315.475501973328
 20
4829.865217449512
 30
0.0
 10
6315.564038139293
 20
4829.813895873748
 30
0.0
 10
6315.652561614816
 20
4829.762514284307
 30
0.0
 10
6315.695741782232
 20
4829.737451264346
 30
0.0
  0
SPLINE
  5
289
330
1F
100
AcDbEntity
  8
0
  6
Continuous
 62
     7
370
    25
100
AcDbSpline
210
0.0
220
0.0
230
1.0
 70
     8
 71
     3
 72
     9
 73
     5
 74
     0
 42
0.00000001
 43
0.00000001
 40
0.0
 40
0.0
 40
0.0
 40
0.0
 40
0.4999719868336176
 40
1.0
 40
1.0
 40
1.0
 40
1.0
 10
6315.832562905093
 20
4830.154034267474
 30
0.0
 10
6315.791711844662
 20
4830.127884700411
 30
0.0
 10
6315.710005146072
 20
4830.075582635992
 30
0.0
 10
6315.627854947376
 20
4830.02328945707
 30
0.0
 10
6315.586777546741
 20
4829.99714140271
 30
0.0
  0
SPLINE
  5
28A
330
1F
100
AcDbEntity
  8
0
  6
Continuous
 62
     7
370
    25
100
AcDbSpline
210
0.0
220
0.0
230
1.0
 70
     8
 71
     3
 72
     9
 73
     5
 74
     0
 42
0.00000001
 43
0.00000001
 40
0.0
 40
0.0
 40
0.0
 40
0.0
 40
0.4999719868336022
 40
1.0
 40
1.0
 40
1.0
 40
1.0
 10
6315.832562905093
 20
4829.654034267474
 30
0.0
 10
6315.791711844662
 20
4829.627884700411
 30
0.0
 10
6315.710005146072
 20
4829.575582635991
 30
0.0
 10
6315.627854947376
 20
4829.523289457069
 30
0.0
 10
6315.586777546741
 20
4829.49714140271
 30
0.0
  0
SPLINE
  5
28B
330
1F
100
AcDbEntity
  8
0
  6
Continuous
 62
     7
370
    25
100
AcDbSpline
210
0.0
220
0.0
230
1.0
 70
     8
 71
     3
 72
     9
 73
     5
 74
     0
 42
0.00000001
 43
0.00000001
 40
0.0
 40
0.0
 40
0.0
 40
0.0
 40
0.5134728673986768
 40
1.0
 40
1.0
 40
1.0
 40
1.0
 10
6318.419410011533
 20
4830.216501670096
 30
0.0
 10
6318.374057303897
 20
4830.242788974857
 30
0.0
 10
6318.285731882021
 20
4830.29398409427
 30
0.0
 10
6318.197433342952
 20
4830.345238512821
 30
0.0
 10
6318.154473707926
 20
4830.370175178113
 30
0.0
  0
SPLINE
  5
28C
330
1F
100
AcDbEntity
  8
0
  6
Continuous
 62
     7
370
    25
100
AcDbSpline
210
0.0
220
0.0
230
1.0
 70
     8
 71
     3
 72
     9
 73
     5
 74
     0
 42
0.00000001
 43
0.00000001
 40
0.0
 40
0.0
 40
0.0
 40
0.0
 40
0.5134728673986771
 40
1.0
 40
1.0
 40
1.0
 40
1.0
 10
6318.419410011533
 20
4829.716501670096
 30
0.0
 10
6318.374057303897
 20
4829.742788974858
 30
0.0
 10
6318.285731882021
 20
4829.793984094271
 30
0.0
 10
6318.197433342952
 20
4829.845238512822
 30
0.0
 10
6318.154473707926
 20
4829.870175178113
 30
0.0
  0
LINE
  5
28D
330
1F
100
AcDbEntity
  8
0
  6
Continuous
 62
     7
370
    25
100
AcDbLine
 10
6318.4251077451
 20
4830.1475590968
 30
0.0
 11
6318.4251077451
 21
4830.2100590982
 31
0.0
  0
LINE
  5
28E
330
1F
100
AcDbEntity
  8
0
  6
Continuous
 62
     7
370
    25
100
AcDbLine
 10
6318.4251077451
 20
4829.6475590968
 30
0.0
 11
6318.4251077451
 21
4829.7100590982
 31
0.0
  0
LINE
  5
28F
330
1F
100
AcDbEntity
  8
0
  6
Continuous
 62
     7
370
    25
100
AcDbLine
 10
6315.4251077451
 20
4829.9600590982
 30
0.0
 11
6315.4251077451
 21
4829.8975590968
 31
0.0
  0
LINE
  5
290
330
1F
100
AcDbEntity
  8
0
  6
Continuous
 62
     7
370
    25
100
AcDbLine
 10
6315.6957417822
 20
4829.7414056624
 30
0.0
 11
6315.6957417822
 21
4829.6164056624
 31
0.0
  0
LINE
  5
291
330
1F
100
AcDbEntity
  8
0
  6
Continuous
 62
     7
370
    25
100
AcDbLine
 10
6318.1544737079
 20
4830.3664056624
 30
0.0
 11
6318.1544737079
 21
4830.3975590968
 31
0.0
  0
LINE
  5
292
330
1F
100
AcDbEntity
  8
0
  6
Continuous
 62
     7
370
    25
100
AcDbLine
 10
6318.1544737079
 20
4829.8664056624
 30
0.0
 11
6318.1544737079
 21
4829.9914056624
 31
0.0
  0
LINE
  5
293
330
1F
100
AcDbEntity
  8
0
  6
Continuous
 62
     7
370
    25
100
AcDbLine
 10
6318.1544737079
 20
4829.3664056624
 30
0.0
 11
6318.1544737079
 21
4829.4914056624
 31
0.0
  0
LINE
  5
294
330
1F
100
AcDbEntity
  8
0
  6
Continuous
 62
     7
370
    25
100
AcDbLine
 10
6237.0187553361
 20
4825.3975590968
 30
0.0
 11
6237.0187553361
 21
4824.2975590968
 31
0.0
  0
LINE
  5
295
330
1F
100
AcDbEntity
  8
0
  6
Continuous
 62
     7
370
    25
100
AcDbLine
 10
6261.0187553361
 20
4824.2975590968
 30
0.0
 11
6261.0187553361
 21
4825.3975590968
 31
0.0
  0
LINE
  5
296
330
1F
100
AcDbEntity
  8
0
  6
Continuous
 62
     7
370
    25
100
AcDbLine
 10
6237.0187553361
 20
4824.2975590968
 30
0.0
 11
6238.0187553361
 21
4823.2975590968
 31
0.0
  0
LINE
  5
297
330
1F
100
AcDbEntity
  8
0
  6
Continuous
 62
     7
370
    25
100
AcDbLine
 10
6260.0187553361
 20
4823.2975590968
 30
0.0
 11
6261.0187553361
 21
4824.2975590968
 31
0.0
  0
ARC
  5
298
330
1F
100
AcDbEntity
  8
0
  6
Continuous
 62
     7
370
    25
100
AcDbCircle
 10
6254.4187553361
 20
4823.2975590968
 30
0.0
 40
0.1999999999998181
100
AcDbArc
 50
270.0
 51
0.0
  0
ARC
  5
299
330
1F
100
AcDbEntity
  8
0
  6
Continuous
 62
     7
370
    25
100
AcDbCircle
 10
6243.6187553361
 20
4823.2975590968
 30
0.0
 40
0.1999999999998181
100
AcDbArc
 50
180.0
 51
270.0
  0
LINE
  5
29A
330
1F
100
AcDbEntity
  8
0
  6
Continuous
 62
     7
370
    25
100
AcDbLine
 10
6249.1127409747
 20
4823.0975590968
 30
0.0
 11
6249.1127409747
 21
4823.2975590968
 31
0.0
  0
LINE
  5
29B
330
1F
100
AcDbEntity
  8
0
  6
Continuous
 62
     7
370
    25
100
AcDbLine
 10
6251.5187553361
 20
4952.6475590968
 30
0.0
 11
6242.7687553361
 21
4952.6475590968
 31
0.0
  0
LINE
  5
29C
330
1F
100
AcDbEntity
  8
0
  6
Continuous
 62
     7
370
    25
100
AcDbLine
 10
6260.2687553361
 20
4952.6475590968
 30
0.0
 11
6251.5187553361
 21
4952.6475590968
 31
0.0
  0
CIRCLE
  5
29D
330
1F
100
AcDbEntity
  8
0
  6
Continuous
 62
     7
370
    25
100
AcDbCircle
 10
6251.5187553361
 20
4930.3975590968
 30
0.0
 40
11.0
  0
CIRCLE
  5
29E
330
1F
100
AcDbEntity
  8
0
  6
Continuous
 62
     7
370
    25
100
AcDbCircle
 10
6251.5187553361
 20
4930.3975590968
 30
0.0
 40
8.75
  0
CIRCLE
  5
29F
330
1F
100
AcDbEntity
  8
0
  6
Continuous
 62
     7
370
    25
100
AcDbCircle
 10
6251.5187553361
 20
4930.3975590968
 30
0.0
 40
7.0
  0
SPLINE
  5
2A0
330
1F
100
AcDbEntity
  8
0
  6
Continuous
 62
     7
370
    25
100
AcDbSpline
210
0.0
220
0.0
230
1.0
 70
     8
 71
     3
 72
    10
 73
     6
 74
     0
 42
0.00000001
 43
0.00000001
 40
0.0
 40
0.0
 40
0.0
 40
0.0
 40
0.3893520694904065
 40
0.7787687289119992
 40
1.0
 40
1.0
 40
1.0
 40
1.0
 10
6328.466034315579
 20
4825.393805935657
 30
0.0
 10
6328.427402145066
 20
4825.3895062581
 30
0.0
 10
6328.350131395317
 20
4825.380906189708
 30
0.0
 10
6328.293848693856
 20
4825.374647039359
 30
0.0
 10
6328.296188101471
 20
4825.374907179067
 30
0.0
 10
6328.297035644046
 20
4825.375001424925
 30
0.0
  0
SPLINE
  5
2A1
330
1F
100
AcDbEntity
  8
0
  6
Continuous
 62
     7
370
    25
100
AcDbSpline
210
0.0
220
0.0
230
1.0
 70
     8
 71
     3
 72
    13
 73
     9
 74
     0
 42
0.00000001
 43
0.00000001
 40
0.0
 40
0.0
 40
0.0
 40
0.0
 40
0.1945921045770271
 40
0.3892164901962509
 40
0.5831042183268673
 40
0.7765337036200386
 40
0.9702718140457952
 40
1.0
 40
1.0
 40
1.0
 40
1.0
 10
6327.162665944315
 20
4825.393805935657
 30
0.0
 10
6327.178189516147
 20
4825.389450917037
 30
0.0
 10
6327.209239235031
 20
4825.380740157338
 30
0.0
 10
6327.320657524178
 20
4825.37426677781
 30
0.0
 10
6327.46551228575
 20
4825.37375067343
 30
0.0
 10
6327.631942601006
 20
4825.379583891637
 30
0.0
 10
6327.753382613705
 20
4825.387741552784
 30
0.0
 10
6327.814052646771
 20
4825.393093901571
 30
0.0
 10
6327.822123707392
 20
4825.393805935657
 30
0.0
  0
SPLINE
  5
2A2
330
1F
100
AcDbEntity
  8
0
  6
Continuous
 62
     7
370
    25
100
AcDbSpline
210
0.0
220
0.0
230
1.0
 70
     8
 71
     3
 72
    13
 73
     9
 74
     0
 42
0.00000001
 43
0.00000001
 40
0.0
 40
0.0
 40
0.0
 40
0.0
 40
0.1945921045769649
 40
0.3892164901964043
 40
0.5831042183268592
 40
0.7765337036200425
 40
0.9702718140457667
 40
1.0
 40
1.0
 40
1.0
 40
1.0
 10
6325.215386964861
 20
4825.393805935657
 30
0.0
 10
6325.270040315632
 20
4825.389450917037
 30
0.0
 10
6325.379356083662
 20
4825.380740157338
 30
0.0
 10
6325.548983769279
 20
4825.37426677781
 30
0.0
 10
6325.698477601826
 20
4825.37375067343
 30
0.0
 10
6325.812459830826
 20
4825.379583891637
 30
0.0
 10
6325.86058182419
 20
4825.387741552784
 30
0.0
 10
6325.873170085383
 20
4825.393093901571
 30
0.0
 10
6325.874844727939
 20
4825.393805935657
 30
0.0
  0
SPLINE
  5
2A3
330
1F
100
AcDbEntity
  8
0
  6
Continuous
 62
     7
370
    25
100
AcDbSpline
210
0.0
220
0.0
230
1.0
 70
     8
 71
     3
 72
    11
 73
     7
 74
     0
 42
0.00000001
 43
0.00000001
 40
0.0
 40
0.0
 40
0.0
 40
0.0
 40
0.1664459747949742
 40
0.5531947334710555
 40
0.9405605665648871
 40
0.9999999999999999
 40
0.9999999999999999
 40
0.9999999999999999
 40
0.9999999999999999
 10
6324.740476532153
 20
4825.375001257658
 30
0.0
 10
6324.742105358966
 20
4825.374820101964
 30
0.0
 10
6324.74751887777
 20
4825.374218018457
 30
0.0
 10
6324.697125908712
 20
4825.379822629975
 30
0.0
 10
6324.626016796376
 20
4825.387734629739
 30
0.0
 10
6324.577880083638
 20
4825.39309308872
 30
0.0
 10
6324.571476356674
 20
4825.393805935657
 30
0.0
  0
LINE
  5
2A4
330
1F
100
AcDbEntity
  8
0
  6
Continuous
 62
     7
370
    25
100
AcDbLine
 10
6325.7687553361
 20
4825.311283203
 30
0.0
 11
6327.2687553361
 21
4825.311283203
 31
0.0
  0
SPLINE
  5
2A5
330
1F
100
AcDbEntity
  8
0
  6
Continuous
 62
     7
370
    25
100
AcDbSpline
210
0.0
220
0.0
230
1.0
 70
     8
 71
     3
 72
    10
 73
     6
 74
     0
 42
0.00000001
 43
0.00000001
 40
0.0
 40
0.0
 40
0.0
 40
0.0
 40
0.3893520694904065
 40
0.7787687289119992
 40
1.0
 40
1.0
 40
1.0
 40
1.0
 10
6223.466034315526
 20
4825.393805935657
 30
0.0
 10
6223.427402145014
 20
4825.3895062581
 30
0.0
 10
6223.350131395265
 20
4825.380906189708
 30
0.0
 10
6223.293848693804
 20
4825.374647039359
 30
0.0
 10
6223.296188101417
 20
4825.374907179067
 30
0.0
 10
6223.297035643993
 20
4825.375001424925
 30
0.0
  0
SPLINE
  5
2A6
330
1F
100
AcDbEntity
  8
0
  6
Continuous
 62
     7
370
    25
100
AcDbSpline
210
0.0
220
0.0
230
1.0
 70
     8
 71
     3
 72
    13
 73
     9
 74
     0
 42
0.00000001
 43
0.00000001
 40
0.0
 40
0.0
 40
0.0
 40
0.0
 40
0.1945921045770273
 40
0.3892164901962512
 40
0.5831042183268609
 40
0.7765337036200323
 40
0.9702718140457951
 40
0.9999999999999999
 40
0.9999999999999999
 40
0.9999999999999999
 40
0.9999999999999999
 10
6222.162665944261
 20
4825.393805935657
 30
0.0
 10
6222.178189516094
 20
4825.389450917037
 30
0.0
 10
6222.209239234978
 20
4825.380740157338
 30
0.0
 10
6222.320657524125
 20
4825.37426677781
 30
0.0
 10
6222.465512285697
 20
4825.37375067343
 30
0.0
 10
6222.631942600952
 20
4825.379583891637
 30
0.0
 10
6222.753382613651
 20
4825.387741552784
 30
0.0
 10
6222.814052646718
 20
4825.393093901571
 30
0.0
 10
6222.822123707339
 20
4825.393805935657
 30
0.0
  0
SPLINE
  5
2A7
330
1F
100
AcDbEntity
  8
0
  6
Continuous
 62
     7
370
    25
100
AcDbSpline
210
0.0
220
0.0
230
1.0
 70
     8
 71
     3
 72
    13
 73
     9
 74
     0
 42
0.00000001
 43
0.00000001
 40
0.0
 40
0.0
 40
0.0
 40
0.0
 40
0.1945921045769725
 40
0.3892164901964037
 40
0.5831042183268583
 40
0.7765337036200415
 40
0.9702718140457685
 40
1.0
 40
1.0
 40
1.0
 40
1.0
 10
6220.215386964808
 20
4825.393805935657
 30
0.0
 10
6220.270040315579
 20
4825.389450917037
 30
0.0
 10
6220.379356083609
 20
4825.380740157338
 30
0.0
 10
6220.548983769226
 20
4825.37426677781
 30
0.0
 10
6220.698477601773
 20
4825.37375067343
 30
0.0
 10
6220.812459830772
 20
4825.379583891637
 30
0.0
 10
6220.860581824137
 20
4825.387741552784
 30
0.0
 10
6220.87317008533
 20
4825.393093901571
 30
0.0
 10
6220.874844727886
 20
4825.393805935657
 30
0.0
  0
SPLINE
  5
2A8
330
1F
100
AcDbEntity
  8
0
  6
Continuous
 62
     7
370
    25
100
AcDbSpline
210
0.0
220
0.0
230
1.0
 70
     8
 71
     3
 72
    11
 73
     7
 74
     0
 42
0.00000001
 43
0.00000001
 40
0.0
 40
0.0
 40
0.0
 40
0.0
 40
0.1664459747949756
 40
0.5531947334710645
 40
0.9405605665648986
 40
1.0
 40
1.0
 40
1.0
 40
1.0
 10
6219.7404765321
 20
4825.375001257658
 30
0.0
 10
6219.742105358912
 20
4825.374820101964
 30
0.0
 10
6219.747518877717
 20
4825.374218018457
 30
0.0
 10
6219.697125908659
 20
4825.379822629975
 30
0.0
 10
6219.626016796324
 20
4825.387734629739
 30
0.0
 10
6219.577880083584
 20
4825.39309308872
 30
0.0
 10
6219.571476356621
 20
4825.393805935657
 30
0.0
  0
LINE
  5
2A9
330
1F
100
AcDbEntity
  8
0
  6
Continuous
 62
     7
370
    25
100
AcDbLine
 10
6220.7687553361
 20
4825.311283203
 30
0.0
 11
6222.2687553361
 21
4825.311283203
 31
0.0
  0
LINE
  5
2AA
330
1F
100
AcDbEntity
  8
0
  6
Continuous
 62
     7
370
    25
100
AcDbLine
 10
6334.8116485549
 20
4948.3975590968
 30
0.0
 11
6334.8116485549
 21
4830.3975590968
 31
0.0
  0
LINE
  5
2AB
330
1F
100
AcDbEntity
  8
0
  6
Continuous
 62
     7
370
    25
100
AcDbLine
 10
6334.8116485549
 20
4830.3975590968
 30
0.0
 11
6213.2258621173
 21
4830.3975590968
 31
0.0
  0
LINE
  5
2AC
330
1F
100
AcDbEntity
  8
0
  6
Continuous
 62
     7
370
    25
100
AcDbLine
 10
6213.2258621173
 20
4948.3975590968
 30
0.0
 11
6213.2258621173
 21
4830.3975590968
 31
0.0
  0
LINE
  5
2AD
330
1F
100
AcDbEntity
  8
0
  6
Continuous
 62
     7
370
    25
100
AcDbLine
 10
6213.2258621173
 20
4948.3975590968
 30
0.0
 11
6334.8116485549
 21
4948.3975590968
 31
0.0
  0
SPLINE
  5
2AE
330
1F
100
AcDbEntity
  8
0
  6
Continuous
 62
     7
370
    25
100
AcDbSpline
210
0.0
220
0.0
230
1.0
 70
     8
 71
     3
 72
    11
 73
     7
 74
     0
 42
0.00000001
 43
0.00000001
 40
0.0
 40
0.0
 40
0.0
 40
0.0
 40
0.2499999999999968
 40
0.5000000000000001
 40
0.75
 40
1.0
 40
1.0
 40
1.0
 40
1.0
 10
6334.518755336074
 20
4950.397559096839
 30
0.0
 10
6334.543163104307
 20
4950.367495951265
 30
0.0
 10
6334.591978640777
 20
4950.307369660115
 30
0.0
 10
6334.66520194548
 20
4949.84487123387
 30
0.0
 10
6334.738425250183
 20
4949.183781359677
 30
0.0
 10
6334.787240786653
 20
4948.659633184452
 30
0.0
 10
6334.811648554887
 20
4948.397559096839
 30
0.0
  0
SPLINE
  5
2AF
330
1F
100
AcDbEntity
  8
0
  6
Continuous
 62
     7
370
    25
100
AcDbSpline
210
0.0
220
0.0
230
1.0
 70
     8
 71
     3
 72
    11
 73
     7
 74
     0
 42
0.00000001
 43
0.00000001
 40
0.0
 40
0.0
 40
0.0
 40
0.0
 40
0.2500000000000002
 40
0.4999999999999999
 40
0.7500000000000038
 40
1.0
 40
1.0
 40
1.0
 40
1.0
 10
6213.22586211726
 20
4948.397559096838
 30
0.0
 10
6213.250269885495
 20
4948.659633184451
 30
0.0
 10
6213.299085421964
 20
4949.183781359676
 30
0.0
 10
6213.372308726667
 20
4949.84487123387
 30
0.0
 10
6213.44553203137
 20
4950.307369660114
 30
0.0
 10
6213.494347567839
 20
4950.367495951264
 30
0.0
 10
6213.518755336073
 20
4950.397559096838
 30
0.0
  0
LINE
  5
2B0
330
1F
100
AcDbEntity
  8
0
  6
Continuous
 62
     7
370
    25
100
AcDbLine
 10
6213.5187553361
 20
4950.3975590968
 30
0.0
 11
6334.5187553361
 21
4950.3975590968
 31
0.0
  0
LINE
  5
2B1
330
1F
100
AcDbEntity
  8
0
  6
Continuous
 62
     7
370
    25
100
AcDbLine
 10
6229.5187553361
 20
4830.3975590968
 30
0.0
 11
6229.5187553361
 21
4828.3975590968
 31
0.0
  0
LINE
  5
2B2
330
1F
100
AcDbEntity
  8
0
  6
Continuous
 62
     7
370
    25
100
AcDbLine
 10
6213.5187553361
 20
4828.3975590968
 30
0.0
 11
6213.5187553361
 21
4830.3975590968
 31
0.0
  0
LINE
  5
2B3
330
1F
100
AcDbEntity
  8
0
  6
Continuous
 62
     7
370
    25
100
AcDbLine
 10
6318.5187553361
 20
4828.3975590968
 30
0.0
 11
6318.5187553361
 21
4830.3975590968
 31
0.0
  0
LINE
  5
2B4
330
1F
100
AcDbEntity
  8
0
  6
Continuous
 62
     7
370
    25
100
AcDbLine
 10
6334.5187553361
 20
4830.3975590968
 30
0.0
 11
6334.5187553361
 21
4828.3975590968
 31
0.0
  0
LINE
  5
2B5
330
1F
100
AcDbEntity
  8
0
  6
Continuous
 62
     7
370
    25
100
AcDbLine
 10
6211.5187553361
 20
4948.3975590968
 30
0.0
 11
6212.5187553361
 21
4948.3975590968
 31
0.0
  0
LINE
  5
2B6
330
1F
100
AcDbEntity
  8
0
  6
Continuous
 62
     7
370
    25
100
AcDbLine
 10
6212.5187553361
 20
4830.3975590968
 30
0.0
 11
6211.5187553361
 21
4830.3975590968
 31
0.0
  0
LINE
  5
2B7
330
1F
100
AcDbEntity
  8
0
  6
Continuous
 62
     7
370
    25
100
AcDbLine
 10
6212.5187553361
 20
4948.3975590968
 30
0.0
 11
6212.5187553361
 21
4830.3975590968
 31
0.0
  0
LINE
  5
2B8
330
1F
100
AcDbEntity
  8
0
  6
Continuous
 62
     7
370
    25
100
AcDbLine
 10
6211.5187553361
 20
4948.3975590968
 30
0.0
 11
6211.5187553361
 21
4830.3975590968
 31
0.0
  0
LINE
  5
2B9
330
1F
100
AcDbEntity
  8
0
  6
Continuous
 62
     7
370
    25
100
AcDbLine
 10
6336.5187553361
 20
4948.3975590968
 30
0.0
 11
6335.5187553361
 21
4948.3975590968
 31
0.0
  0
LINE
  5
2BA
330
1F
100
AcDbEntity
  8
0
  6
Continuous
 62
     7
370
    25
100
AcDbLine
 10
6335.5187553361
 20
4830.3975590968
 30
0.0
 11
6336.5187553361
 21
4830.3975590968
 31
0.0
  0
LINE
  5
2BB
330
1F
100
AcDbEntity
  8
0
  6
Continuous
 62
     7
370
    25
100
AcDbLine
 10
6335.5187553361
 20
4948.3975590968
 30
0.0
 11
6335.5187553361
 21
4830.3975590968
 31
0.0
  0
LINE
  5
2BC
330
1F
100
AcDbEntity
  8
0
  6
Continuous
 62
     7
370
    25
100
AcDbLine
 10
6336.5187553361
 20
4830.3975590968
 30
0.0
 11
6336.5187553361
 21
4948.3975590968
 31
0.0
  0
SPLINE
  5
2BD
330
1F
100
AcDbEntity
  8
0
  6
Continuous
 62
     7
370
    25
100
AcDbSpline
210
0.0
220
0.0
230
1.0
 70
     8
 71
     3
 72
    11
 73
     7
 74
     0
 42
0.00000001
 43
0.00000001
 40
0.0
 40
0.0
 40
0.0
 40
0.0
 40
0.2500000000000047
 40
0.5000000000000011
 40
0.7499999999999996
 40
0.9999999999999999
 40
0.9999999999999999
 40
0.9999999999999999
 40
0.9999999999999999
 10
6213.518755336073
 20
4950.397559096838
 30
0.0
 10
6213.256681248462
 20
4950.367495951264
 30
0.0
 10
6212.732533073236
 20
4950.307369660114
 30
0.0
 10
6212.071443199043
 20
4949.84487123387
 30
0.0
 10
6211.608944772798
 20
4949.183781359676
 30
0.0
 10
6211.548818481649
 20
4948.659633184451
 30
0.0
 10
6211.518755336074
 20
4948.397559096838
 30
0.0
  0
SPLINE
  5
2BE
330
1F
100
AcDbEntity
  8
0
  6
Continuous
 62
     7
370
    25
100
AcDbSpline
210
0.0
220
0.0
230
1.0
 70
     8
 71
     3
 72
    11
 73
     7
 74
     0
 42
0.00000001
 43
0.00000001
 40
0.0
 40
0.0
 40
0.0
 40
0.0
 40
0.13881561105118
 40
0.4258770740341194
 40
0.7129385370170513
 40
1.0
 40
1.0
 40
1.0
 40
1.0
 10
6213.321127863331
 20
4949.358248548376
 30
0.0
 10
6213.258318845778
 20
4949.34932193636
 30
0.0
 10
6213.065624951945
 20
4949.321935683637
 30
0.0
 10
6212.796162806812
 20
4949.118050794966
 30
0.0
 10
6212.563584169622
 20
4948.791461320854
 30
0.0
 10
6212.533698280589
 20
4948.528859838178
 30
0.0
 10
6212.518755336074
 20
4948.397559096838
 30
0.0
  0
SPLINE
  5
2BF
330
1F
100
AcDbEntity
  8
0
  6
Continuous
 62
     7
370
    25
100
AcDbSpline
210
0.0
220
0.0
230
1.0
 70
     8
 71
     3
 72
    11
 73
     7
 74
     0
 42
0.00000001
 43
0.00000001
 40
0.0
 40
0.0
 40
0.0
 40
0.0
 40
0.2500000000000009
 40
0.5000000000000007
 40
0.7499999999999999
 40
1.0
 40
1.0
 40
1.0
 40
1.0
 10
6336.518755336074
 20
4948.397559096839
 30
0.0
 10
6336.488692190499
 20
4948.659633184452
 30
0.0
 10
6336.428565899349
 20
4949.183781359677
 30
0.0
 10
6335.966067473105
 20
4949.84487123387
 30
0.0
 10
6335.304977598911
 20
4950.307369660115
 30
0.0
 10
6334.780829423687
 20
4950.367495951265
 30
0.0
 10
6334.518755336074
 20
4950.397559096839
 30
0.0
  0
SPLINE
  5
2C0
330
1F
100
AcDbEntity
  8
0
  6
Continuous
 62
     7
370
    25
100
AcDbSpline
210
0.0
220
0.0
230
1.0
 70
     8
 71
     3
 72
    11
 73
     7
 74
     0
 42
0.00000001
 43
0.00000001
 40
0.0
 40
0.0
 40
0.0
 40
0.0
 40
0.2870614629829433
 40
0.57412292596588
 40
0.861184388948818
 40
1.0
 40
1.0
 40
1.0
 40
1.0
 10
6335.518755336073
 20
4948.397559096839
 30
0.0
 10
6335.503812391557
 20
4948.528859838178
 30
0.0
 10
6335.473926502526
 20
4948.791461320855
 30
0.0
 10
6335.241347865334
 20
4949.118050794967
 30
0.0
 10
6334.971885720201
 20
4949.321935683638
 30
0.0
 10
6334.779191826369
 20
4949.349321936361
 30
0.0
 10
6334.716382808816
 20
4949.358248548377
 30
0.0
  0
ARC
  5
2C1
330
1F
100
AcDbEntity
  8
0
  6
Continuous
 62
     7
370
    25
100
AcDbCircle
 10
6213.5187553361
 20
4830.3975590968
 30
0.0
 40
2.000000000000909
100
AcDbArc
 50
180.0
 51
270.0
  0
ARC
  5
2C2
330
1F
100
AcDbEntity
  8
0
  6
Continuous
 62
     7
370
    25
100
AcDbCircle
 10
6213.5187553361
 20
4830.3975590968
 30
0.0
 40
1.0
100
AcDbArc
 50
180.0
 51
270.0
  0
ARC
  5
2C3
330
1F
100
AcDbEntity
  8
0
  6
Continuous
 62
     7
370
    25
100
AcDbCircle
 10
6334.5187553361
 20
4830.3975590968
 30
0.0
 40
2.000000000000909
100
AcDbArc
 50
270.0
 51
0.0
  0
ARC
  5
2C4
330
1F
100
AcDbEntity
  8
0
  6
Continuous
 62
     7
370
    25
100
AcDbCircle
 10
6334.5187553361
 20
4830.3975590968
 30
0.0
 40
1.0
100
AcDbArc
 50
270.0
 51
0.0
  0
ARC
  5
2C5
330
1F
100
AcDbEntity
  8
0
  6
Continuous
 62
     7
370
    25
100
AcDbCircle
 10
6291.9251077451
 20
4990.5118448111
 30
0.0
 40
162.1142857142865
100
AcDbArc
 50
261.0014755903
 51
279.0092676211
  0
LINE
  5
2C6
330
1F
100
AcDbEntity
  8
0
  6
Continuous
 62
     7
370
    25
100
AcDbLine
 10
6292.9251077451
 20
4822.3975590968
 30
0.0
 11
6311.7187553361
 21
4822.3975590968
 31
0.0
  0
LINE
  5
2C7
330
1F
100
AcDbEntity
  8
0
  6
Continuous
 62
     7
370
    25
100
AcDbLine
 10
6292.9251077451
 20
4822.3975590968
 30
0.0
 11
6292.9251077451
 21
4825.3975590968
 31
0.0
  0
LINE
  5
2C8
330
1F
100
AcDbEntity
  8
0
  6
Continuous
 62
     7
370
    25
100
AcDbLine
 10
6292.9251077451
 20
4828.3975590968
 30
0.0
 11
6292.9251077451
 21
4828.4006433701
 31
0.0
  0
LINE
  5
2C9
330
1F
100
AcDbEntity
  8
0
  6
Continuous
 62
     7
370
    25
100
AcDbLine
 10
6261.9251077451
 20
4829.1975590968
 30
0.0
 11
6263.2192253921
 21
4828.3975590968
 31
0.0
  0
LINE
  5
2CA
330
1F
100
AcDbEntity
  8
0
  6
Continuous
 62
     7
370
    25
100
AcDbLine
 10
6268.0721665686
 20
4825.3975590968
 30
0.0
 11
6272.9251077451
 21
4822.3975590968
 31
0.0
  0
LINE
  5
2CB
330
1F
100
AcDbEntity
  8
0
  6
Continuous
 62
     7
370
    25
100
AcDbLine
 10
6272.9251077451
 20
4822.3975590968
 30
0.0
 11
6292.9251077451
 21
4822.3975590968
 31
0.0
  0
LINE
  5
2CC
330
1F
100
AcDbEntity
  8
0
  6
Continuous
 62
     7
370
    25
100
AcDbLine
 10
6261.9251077451
 20
4829.1975590968
 30
0.0
 11
6261.9251077451
 21
4830.3975590968
 31
0.0
  0
LINE
  5
2CD
330
1F
100
AcDbEntity
  8
0
  6
Continuous
 62
     7
370
    25
100
AcDbLine
 10
6309.3187553361
 20
4816.3975590968
 30
0.0
 11
6289.1187553361
 21
4816.3975590968
 31
0.0
  0
ARC
  5
2CE
330
1F
100
AcDbEntity
  8
0
  6
Continuous
 62
     7
370
    25
100
AcDbCircle
 10
6295.2408801117
 20
4814.728574346
 30
0.0
 40
1.039046077173694
100
AcDbArc
 50
313.0849880674
 51
350.8026878477
  0
LINE
  5
2CF
330
1F
100
AcDbEntity
  8
0
  6
Continuous
 62
     7
370
    25
100
AcDbLine
 10
6295.3019855949
 20
4814.6885841089
 30
0.0
 11
6295.3019855949
 21
4813.9697161097
 31
0.0
  0
ARC
  5
2D0
330
1F
100
AcDbEntity
  8
0
  6
Continuous
 62
     7
370
    25
100
AcDbCircle
 10
6300.2394582686
 20
4815.0778303426
 30
0.0
 40
5.252320604056198
100
AcDbArc
 50
330.2270533898
 51
0.7931348707
  0
LINE
  5
2D1
330
1F
100
AcDbEntity
  8
0
  6
Continuous
 62
     7
370
    25
100
AcDbLine
 10
6304.1498239735
 20
4812.4697161097
 30
0.0
 11
6304.7984726222
 21
4812.4697161097
 31
0.0
  0
LINE
  5
2D2
330
1F
100
AcDbEntity
  8
0
  6
Continuous
 62
     7
370
    25
100
AcDbLine
 10
6304.1498239735
 20
4814.860338124
 30
0.0
 11
6304.1498239735
 21
4812.4697161097
 31
0.0
  0
LINE
  5
2D3
330
1F
100
AcDbEntity
  8
0
  6
Continuous
 62
     7
370
    25
100
AcDbLine
 10
6301.4656482856
 20
4813.9697161097
 30
0.0
 11
6295.3019855949
 21
4813.9697161097
 31
0.0
  0
LINE
  5
2D4
330
1F
100
AcDbEntity
  8
0
  6
Continuous
 62
     7
370
    25
100
AcDbLine
 10
6304.1498239735
 20
4812.4697161097
 30
0.0
 11
6292.617809907
 21
4812.4697161097
 31
0.0
  0
LINE
  5
2D5
330
1F
100
AcDbEntity
  8
0
  6
Continuous
 62
     7
370
    25
100
AcDbLine
 10
6292.617809907
 20
4815.2327642317
 30
0.0
 11
6292.617809907
 21
4812.4697161097
 31
0.0
  0
LINE
  5
2D6
330
1F
100
AcDbEntity
  8
0
  6
Continuous
 62
     7
370
    25
100
AcDbLine
 10
6301.4656482856
 20
4814.4929771239
 30
0.0
 11
6301.4656482856
 21
4813.9697161097
 31
0.0
  0
LINE
  5
2D7
330
1F
100
AcDbEntity
  8
0
  6
Continuous
 62
     7
370
    25
100
AcDbLine
 10
6318.5187553361
 20
4829.8975590968
 30
0.0
 11
6318.1544737079
 21
4829.8975590968
 31
0.0
  0
LINE
  5
2D8
330
1F
100
AcDbEntity
  8
0
  6
Continuous
 62
     7
370
    25
100
AcDbLine
 10
6235.5894660142
 20
4829.8975590968
 30
0.0
 11
6229.5187553361
 21
4829.8975590968
 31
0.0
  0
LINE
  5
2D9
330
1F
100
AcDbEntity
  8
0
  6
Continuous
 62
     7
370
    25
100
AcDbLine
 10
6201.5187553361
 20
4828.3975590968
 30
0.0
 11
6204.5187553361
 21
4828.3975590968
 31
0.0
  0
LINE
  5
2DA
330
1F
100
AcDbEntity
  8
0
  6
Continuous
 62
     7
370
    25
100
AcDbLine
 10
6204.5187553361
 20
4828.3975590968
 30
0.0
 11
6204.5187553361
 21
4826.3975590968
 31
0.0
  0
LINE
  5
2DB
330
1F
100
AcDbEntity
  8
0
  6
Continuous
 62
     7
370
    25
100
AcDbLine
 10
6201.5187553361
 20
4826.3975590968
 30
0.0
 11
6204.5187553361
 21
4826.3975590968
 31
0.0
  0
LINE
  5
2DC
330
1F
100
AcDbEntity
  8
0
  6
Continuous
 62
     7
370
    25
100
AcDbLine
 10
6201.5187553361
 20
4826.3975590968
 30
0.0
 11
6201.5187553361
 21
4828.3975590968
 31
0.0
  0
LINE
  5
2DD
330
1F
100
AcDbEntity
  8
0
  6
Continuous
 62
     7
370
    25
100
AcDbLine
 10
6343.5187553361
 20
4828.3975590968
 30
0.0
 11
6346.5187553361
 21
4828.3975590968
 31
0.0
  0
LINE
  5
2DE
330
1F
100
AcDbEntity
  8
0
  6
Continuous
 62
     7
370
    25
100
AcDbLine
 10
6346.5187553361
 20
4828.3975590968
 30
0.0
 11
6346.5187553361
 21
4826.3975590968
 31
0.0
  0
LINE
  5
2DF
330
1F
100
AcDbEntity
  8
0
  6
Continuous
 62
     7
370
    25
100
AcDbLine
 10
6343.5187553361
 20
4826.3975590968
 30
0.0
 11
6346.5187553361
 21
4826.3975590968
 31
0.0
  0
LINE
  5
2E0
330
1F
100
AcDbEntity
  8
0
  6
Continuous
 62
     7
370
    25
100
AcDbLine
 10
6343.5187553361
 20
4826.3975590968
 30
0.0
 11
6343.5187553361
 21
4828.3975590968
 31
0.0
  0
LINE
  5
2E1
330
1F
100
AcDbEntity
  8
0
  6
Continuous
 62
     7
370
    25
100
AcDbLine
 10
6343.5187553361
 20
4828.3975590968
 30
0.0
 11
6204.5187553361
 21
4828.3975590968
 31
0.0
  0
LINE
  5
2E2
330
1F
100
AcDbEntity
  8
0
  6
Continuous
 62
     7
370
    25
100
AcDbLine
 10
6204.5187553361
 20
4826.3975590968
 30
0.0
 11
6343.5187553361
 21
4826.3975590968
 31
0.0
  0
LINE
  5
2E3
330
1F
100
AcDbEntity
  8
0
  6
Continuous
 62
     7
370
    25
100
AcDbLine
 10
6346.5187553361
 20
4826.3975590968
 30
0.0
 11
6345.5187553361
 21
4825.3975590968
 31
0.0
  0
LINE
  5
2E4
330
1F
100
AcDbEntity
  8
0
  6
Continuous
 62
     7
370
    25
100
AcDbLine
 10
6345.5187553361
 20
4825.3975590968
 30
0.0
 11
6343.5187553361
 21
4825.3975590968
 31
0.0
  0
LINE
  5
2E5
330
1F
100
AcDbEntity
  8
0
  6
Continuous
 62
     7
370
    25
100
AcDbLine
 10
6343.5187553361
 20
4826.3975590968
 30
0.0
 11
6343.5187553361
 21
4825.3975590968
 31
0.0
  0
LINE
  5
2E6
330
1F
100
AcDbEntity
  8
0
  6
Continuous
 62
     7
370
    25
100
AcDbLine
 10
6204.5187553361
 20
4825.3975590968
 30
0.0
 11
6202.5187553361
 21
4825.3975590968
 31
0.0
  0
LINE
  5
2E7
330
1F
100
AcDbEntity
  8
0
  6
Continuous
 62
     7
370
    25
100
AcDbLine
 10
6202.5187553361
 20
4825.3975590968
 30
0.0
 11
6201.5187553361
 21
4826.3975590968
 31
0.0
  0
LINE
  5
2E8
330
1F
100
AcDbEntity
  8
0
  6
Continuous
 62
     7
370
    25
100
AcDbLine
 10
6204.5187553361
 20
4825.3975590968
 30
0.0
 11
6204.5187553361
 21
4826.3975590968
 31
0.0
  0
LINE
  5
2E9
330
1F
100
AcDbEntity
  8
0
  6
Continuous
 62
     7
370
    25
100
AcDbLine
 10
6343.5187553361
 20
4825.3975590968
 30
0.0
 11
6204.5187553361
 21
4825.3975590968
 31
0.0
  0
LINE
  5
2EA
330
1F
100
AcDbEntity
  8
0
  6
Continuous
 62
     7
370
    25
100
AcDbLine
 10
6245.4162988842
 20
4933.8268484187
 30
0.0
 11
6249.5187553362
 21
4933.8268484187
 31
0.0
  0
LINE
  5
2EB
330
1F
100
AcDbEntity
  8
0
  6
Continuous
 62
     7
370
    25
100
AcDbLine
 10
6253.5187553361
 20
4933.8268484187
 30
0.0
 11
6254.0187553361
 21
4933.8268484187
 31
0.0
  0
LINE
  5
2EC
330
1F
100
AcDbEntity
  8
0
  6
Continuous
 62
     7
370
    25
100
AcDbLine
 10
6254.0187553361
 20
4933.8268484187
 30
0.0
 11
6254.0187553361
 21
4923.8592106815
 31
0.0
  0
LINE
  5
2ED
330
1F
100
AcDbEntity
  8
0
  6
Continuous
 62
     7
370
    25
100
AcDbLine
 10
6245.4565775096
 20
4933.8975590968
 30
0.0
 11
6249.5187553362
 21
4933.8975590968
 31
0.0
  0
LINE
  5
2EE
330
1F
100
AcDbEntity
  8
0
  6
Continuous
 62
     7
370
    25
100
AcDbLine
 10
6253.5187553362
 20
4933.8975590968
 30
0.0
 11
6257.5809331626
 21
4933.8975590968
 31
0.0
  0
LINE
  5
2EF
330
1F
100
AcDbEntity
  8
0
  6
Continuous
 62
     7
370
    25
100
AcDbLine
 10
6246.6197758505
 20
4935.3975590968
 30
0.0
 11
6249.5187553362
 21
4935.3975590968
 31
0.0
  0
LINE
  5
2F0
330
1F
100
AcDbEntity
  8
0
  6
Continuous
 62
     7
370
    25
100
AcDbLine
 10
6253.5187553362
 20
4935.3975590968
 30
0.0
 11
6256.4177348216
 21
4935.3975590968
 31
0.0
  0
LINE
  5
2F1
330
1F
100
AcDbEntity
  8
0
  6
Continuous
 62
     7
370
    25
100
AcDbLine
 10
6234.0187553361
 20
4829.968269775
 30
0.0
 11
6235.5187553361
 21
4829.968269775
 31
0.0
  0
LINE
  5
2F2
330
1F
100
AcDbEntity
  8
0
  6
Continuous
 62
     7
370
    25
100
AcDbLine
 10
6235.5187553361
 20
4829.968269775
 30
0.0
 11
6235.5187553361
 21
4830.3975590968
 31
0.0
  0
LINE
  5
2F3
330
1F
100
AcDbEntity
  8
0
  6
Continuous
 62
     7
370
    25
100
AcDbLine
 10
6234.0187553361
 20
4829.968269775
 30
0.0
 11
6234.0187553361
 21
4830.3975590968
 31
0.0
  0
LINE
  5
2F4
330
1F
100
AcDbEntity
  8
0
  6
Continuous
 62
     7
370
    25
100
AcDbLine
 10
6235.5894660142
 20
4828.3975590968
 30
0.0
 11
6235.5894660142
 21
4829.8975590968
 31
0.0
  0
LINE
  5
2F5
330
1F
100
AcDbEntity
  8
0
  6
Continuous
 62
     7
370
    25
100
AcDbLine
 10
6261.9251077451
 20
4829.8975590968
 30
0.0
 11
6261.0187553361
 21
4829.8975590968
 31
0.0
  0
LINE
  5
2F6
330
1F
100
AcDbEntity
  8
0
  6
Continuous
 62
     7
370
    25
100
AcDbLine
 10
6237.0187553361
 20
4829.8975590968
 30
0.0
 11
6235.5894660142
 21
4829.8975590968
 31
0.0
  0
LINE
  5
2F7
330
1F
100
AcDbEntity
  8
0
  6
Continuous
 62
     7
370
    25
100
AcDbLine
 10
6312.448044658
 20
4828.3975590968
 30
0.0
 11
6312.448044658
 21
4829.7018616225
 31
0.0
  0
SPLINE
  5
2F8
330
1F
100
AcDbEntity
  8
0
  6
Continuous
 62
     7
370
    25
100
AcDbSpline
210
0.0
220
0.0
230
1.0
 70
     8
 71
     3
 72
    11
 73
     7
 74
     0
 42
0.00000001
 43
0.00000001
 40
0.0
 40
0.0
 40
0.0
 40
0.0
 40
0.2570864536386524
 40
0.5137761670628185
 40
0.780870377455976
 40
1.0
 40
1.0
 40
1.0
 40
1.0
 10
6235.589466014218
 20
4829.897559096839
 30
0.0
 10
6235.598962732846
 20
4829.906133601949
 30
0.0
 10
6235.617941514604
 20
4829.923269379848
 30
0.0
 10
6235.71892997866
 20
4830.052152784783
 30
0.0
 10
6235.853108963584
 20
4830.215323091817
 30
0.0
 10
6235.975924932241
 20
4830.340944492225
 30
0.0
 10
6236.03127519488
 20
4830.397559096838
 30
0.0
  0
SPLINE
  5
2F9
330
1F
100
AcDbEntity
  8
0
  6
Continuous
 62
     7
370
    25
100
AcDbSpline
210
0.0
220
0.0
230
1.0
 70
     8
 71
     3
 72
    12
 73
     8
 74
     0
 42
0.00000001
 43
0.00000001
 40
0.0
 40
0.0
 40
0.0
 40
0.0
 40
0.2385597098984496
 40
0.4345962032489917
 40
0.6246310870301478
 40
0.8119548048197606
 40
1.0
 40
1.0
 40
1.0
 40
1.0
 10
6236.005855434441
 20
4830.397559096838
 30
0.0
 10
6235.945748298481
 20
4830.33925199006
 30
0.0
 10
6235.836248110508
 20
4830.233031005641
 30
0.0
 10
6235.700382077131
 20
4830.120277136826
 30
0.0
 10
6235.599775523289
 20
4830.039274590212
 30
0.0
 10
6235.531969993951
 20
4829.985697263236
 30
0.0
 10
6235.523165862707
 20
4829.974086376615
 30
0.0
 10
6235.5187553361
 20
4829.968269774957
 30
0.0
  0
LINE
  5
2FA
330
1F
100
AcDbEntity
  8
0
  6
Continuous
 62
     7
370
    25
100
AcDbLine
 10
6248.9206791247
 20
4936.8975590968
 30
0.0
 11
6249.5187553362
 21
4936.8975590968
 31
0.0
  0
LINE
  5
2FB
330
1F
100
AcDbEntity
  8
0
  6
Continuous
 62
     7
370
    25
100
AcDbLine
 10
6253.5187553362
 20
4936.8975590968
 30
0.0
 11
6254.1168315474
 21
4936.8975590968
 31
0.0
  0
LINE
  5
2FC
330
1F
100
AcDbEntity
  8
0
  6
Continuous
 62
     7
370
    25
100
AcDbLine
 10
6268.9251077451
 20
4829.3975590968
 30
0.0
 11
6264.9251077451
 21
4829.3975590968
 31
0.0
  0
SPLINE
  5
2FD
330
1F
100
AcDbEntity
  8
0
  6
Continuous
 62
     7
370
    25
100
AcDbSpline
210
0.0
220
0.0
230
1.0
 70
     8
 71
     3
 72
    15
 73
    11
 74
     0
 42
0.00000001
 43
0.00000001
 40
0.0
 40
0.0
 40
0.0
 40
0.0
 40
0.1240915833021787
 40
0.2514425354761567
 40
0.3737540998635382
 40
0.5000000000000007
 40
0.6262459001364619
 40
0.7485574645238445
 40
0.8759084166978216
 40
0.9999999999999999
 40
0.9999999999999999
 40
0.9999999999999999
 40
0.9999999999999999
 10
6268.425107745079
 20
4830.210059098204
 30
0.0
 10
6268.402871030561
 20
4830.200094629759
 30
0.0
 10
6268.357813535683
 20
4830.179903967801
 30
0.0
 10
6268.011164723385
 20
4830.145872448856
 30
0.0
 10
6267.514526199306
 20
4830.117682952216
 30
0.0
 10
6266.925107745079
 20
4830.085059098205
 30
0.0
 10
6266.335689290852
 20
4830.052435244191
 30
0.0
 10
6265.839050766772
 20
4830.024245747552
 30
0.0
 10
6265.492401954474
 20
4829.990214228607
 30
0.0
 10
6265.447344459597
 20
4829.970023566649
 30
0.0
 10
6265.425107745079
 20
4829.960059098204
 30
0.0
  0
SPLINE
  5
2FE
330
1F
100
AcDbEntity
  8
0
  6
Continuous
 62
     7
370
    25
100
AcDbSpline
210
0.0
220
0.0
230
1.0
 70
     8
 71
     3
 72
    15
 73
    11
 74
     0
 42
0.00000001
 43
0.00000001
 40
0.0
 40
0.0
 40
0.0
 40
0.0
 40
0.0322783217870207
 40
0.1734850761714392
 40
0.3184007436624593
 40
0.4575819723261744
 40
0.6012401749070767
 40
0.7448983774879774
 40
0.8840796061516938
 40
1.0
 40
1.0
 40
1.0
 40
1.0
 10
6268.399383225718
 20
4829.717042949848
 30
0.0
 10
6268.409382110959
 20
4829.714709765628
 30
0.0
 10
6268.463122741559
 20
4829.702169688573
 30
0.0
 10
6268.335258619943
 20
4829.679987045474
 30
0.0
 10
6268.016916783441
 20
4829.645850564722
 30
0.0
 10
6267.513254351946
 20
4829.617690327639
 30
0.0
 10
6266.924294943719
 20
4829.585051625686
 30
0.0
 10
6266.340161683256
 20
4829.552457293092
 30
0.0
 10
6265.857384307202
 20
4829.526084025099
 30
0.0
 10
6265.683168052311
 20
4829.506240802101
 30
0.0
 10
6265.604002672322
 20
4829.497223869153
 30
0.0
  0
SPLINE
  5
2FF
330
1F
100
AcDbEntity
  8
0
  6
Continuous
 62
     7
370
    25
100
AcDbSpline
210
0.0
220
0.0
230
1.0
 70
     8
 71
     3
 72
    16
 73
    12
 74
     0
 42
0.00000001
 43
0.00000001
 40
0.0
 40
0.0
 40
0.0
 40
0.0
 40
0.1208633539790746
 40
0.2449012846958911
 40
0.3640309267626554
 40
0.4869925532530149
 40
0.6099541797433758
 40
0.729083821810139
 40
0.8531217525269587
 40
0.9739851065060301
 40
1.0
 40
1.0
 40
1.0
 40
1.0
 10
6268.425107745079
 20
4830.147559096838
 30
0.0
 10
6268.402873572686
 20
4830.137594619053
 30
0.0
 10
6268.35782122883
 20
4830.117403938169
 30
0.0
 10
6268.011133529796
 20
4830.083372562101
 30
0.0
 10
6267.514639436859
 20
4830.055182534793
 30
0.0
 10
6266.924669245725
 20
4830.022560707973
 30
0.0
 10
6266.337302719865
 20
4829.989929314765
 30
0.0
 10
6265.833137361614
 20
4829.961767473221
 30
0.0
 10
6265.515259802361
 20
4829.927630242934
 30
0.0
 10
6265.38717423342
 20
4829.905582282938
 30
0.0
 10
6265.439977762639
 20
4829.893179741821
 30
0.0
 10
6265.449330258412
 20
4829.890983019081
 30
0.0
  0
SPLINE
  5
300
330
1F
100
AcDbEntity
  8
0
  6
Continuous
 62
     7
370
    25
100
AcDbSpline
210
0.0
220
0.0
230
1.0
 70
     8
 71
     3
 72
    15
 73
    11
 74
     0
 42
0.00000001
 43
0.00000001
 40
0.0
 40
0.0
 40
0.0
 40
0.0
 40
0.1240915833021789
 40
0.2514425354761572
 40
0.3737540998635402
 40
0.5000000000000001
 40
0.6262459001364615
 40
0.7485574645238433
 40
0.8759084166978248
 40
1.0
 40
1.0
 40
1.0
 40
1.0
 10
6268.425107745079
 20
4829.647559096838
 30
0.0
 10
6268.402871030561
 20
4829.637594628393
 30
0.0
 10
6268.357813535683
 20
4829.617403966436
 30
0.0
 10
6268.011164723385
 20
4829.583372447491
 30
0.0
 10
6267.514526199306
 20
4829.555182950851
 30
0.0
 10
6266.925107745079
 20
4829.522559096838
 30
0.0
 10
6266.335689290852
 20
4829.489935242826
 30
0.0
 10
6265.839050766772
 20
4829.461745746186
 30
0.0
 10
6265.492401954474
 20
4829.427714227241
 30
0.0
 10
6265.447344459597
 20
4829.407523565284
 30
0.0
 10
6265.425107745079
 20
4829.397559096838
 30
0.0
  0
SPLINE
  5
301
330
1F
100
AcDbEntity
  8
0
  6
Continuous
 62
     7
370
    25
100
AcDbSpline
210
0.0
220
0.0
230
1.0
 70
     8
 71
     3
 72
    13
 73
     9
 74
     0
 42
0.00000001
 43
0.00000001
 40
0.0
 40
0.0
 40
0.0
 40
0.0
 40
0.1877321288234609
 40
0.3813655039143949
 40
0.5689477825169823
 40
0.7642810981914537
 40
0.9546009073273208
 40
1.0
 40
1.0
 40
1.0
 40
1.0
 10
6267.386120383448
 20
4830.397559096838
 30
0.0
 10
6267.233424528045
 20
4830.38720551726
 30
0.0
 10
6266.923232915103
 20
4830.36617289957
 30
0.0
 10
6266.442459010922
 20
4830.333629776599
 30
0.0
 10
6266.030475096984
 20
4830.305528735067
 30
0.0
 10
6265.769178815771
 20
4830.27137991565
 30
0.0
 10
6265.664532991298
 20
4830.249098894648
 30
0.0
 10
6265.70914887768
 20
4830.236456162834
 30
0.0
 10
6265.717741827778
 20
4830.234021192414
 30
0.0
  0
SPLINE
  5
302
330
1F
100
AcDbEntity
  8
0
  6
Continuous
 62
     7
370
    25
100
AcDbSpline
210
0.0
220
0.0
230
1.0
 70
     8
 71
     3
 72
    17
 73
    13
 74
     0
 42
0.00000001
 43
0.00000001
 40
0.0
 40
0.0
 40
0.0
 40
0.0
 40
0.0002040646982953
 40
0.1207008918707719
 40
0.2443719111236914
 40
0.3668718578513781
 40
0.4857303517941076
 40
0.6083250908236063
 40
0.7270887103754695
 40
0.8507597296283881
 40
0.9712565568008648
 40
1.0
 40
1.0
 40
1.0
 40
1.0
 10
6268.154318609972
 20
4829.991360838162
 30
0.0
 10
6268.154370756641
 20
4829.991343590922
 30
0.0
 10
6268.185214648464
 20
4829.981142134023
 30
0.0
 10
6268.075965946273
 20
4829.961252464359
 30
0.0
 10
6267.818674977379
 20
4829.926761571883
 30
0.0
 10
6267.401386728161
 20
4829.898626973904
 30
0.0
 10
6266.920331015676
 20
4829.865967162881
 30
0.0
 10
6266.443218541918
 20
4829.833683625258
 30
0.0
 10
6266.030264322406
 20
4829.80551379173
 30
0.0
 10
6265.769236771635
 20
4829.771384024561
 30
0.0
 10
6265.664530276839
 20
4829.7490987022
 30
0.0
 10
6265.709148439309
 20
4829.736456131754
 30
0.0
 10
6265.717741827778
 20
4829.734021192414
 30
0.0
  0
SPLINE
  5
303
330
1F
100
AcDbEntity
  8
0
  6
Continuous
 62
     7
370
    25
100
AcDbSpline
210
0.0
220
0.0
230
1.0
 70
     8
 71
     3
 72
    13
 73
     9
 74
     0
 42
0.00000001
 43
0.00000001
 40
0.0
 40
0.0
 40
0.0
 40
0.0
 40
0.0589498000955702
 40
0.2509695188371788
 40
0.4491834786042594
 40
0.6473974383713428
 40
0.8394171571129537
 40
1.0
 40
1.0
 40
1.0
 40
1.0
 10
6267.870561595358
 20
4830.312450759044
 30
0.0
 10
6267.845341659482
 20
4830.309162669262
 30
0.0
 10
6267.737971742002
 20
4830.295164143244
 30
0.0
 10
6267.400584867767
 20
4830.274020772093
 30
0.0
 10
6266.926220946057
 20
4830.241279115954
 30
0.0
 10
6266.445247394156
 20
4830.208715475351
 30
0.0
 10
6266.049696922382
 20
4830.182298688047
 30
0.0
 10
6265.906643619825
 20
4830.16242129188
 30
0.0
 10
6265.841494047732
 20
4830.153368695181
 30
0.0
  0
SPLINE
  5
304
330
1F
100
AcDbEntity
  8
0
  6
Continuous
 62
     7
370
    25
100
AcDbSpline
210
0.0
220
0.0
230
1.0
 70
     8
 71
     3
 72
    15
 73
    11
 74
     0
 42
0.00000001
 43
0.00000001
 40
0.0
 40
0.0
 40
0.0
 40
0.0
 40
0.0354120530580261
 40
0.1760912400089576
 40
0.3204762735915465
 40
0.4591319529978655
 40
0.6022604370901921
 40
0.7453889211825205
 40
0.8840446005888413
 40
1.0
 40
1.0
 40
1.0
 40
1.0
 10
6268.130761614353
 20
4829.87401067151
 30
0.0
 10
6268.140070746732
 20
4829.871436862833
 30
0.0
 10
6268.186361670936
 20
4829.858638249863
 30
0.0
 10
6268.080961148825
 20
4829.836238866166
 30
0.0
 10
6267.819922913775
 20
4829.802102212324
 30
0.0
 10
6267.407122264722
 20
4829.773938668405
 30
0.0
 10
6266.924443778279
 20
4829.741301435546
 30
0.0
 10
6266.445707594344
 20
4829.708709695659
 30
0.0
 10
6266.049604827282
 20
4829.682299844677
 30
0.0
 10
6265.906614801988
 20
4829.662421653806
 30
0.0
 10
6265.841494047732
 20
4829.653368695181
 30
0.0
  0
LINE
  5
305
330
1F
100
AcDbEntity
  8
0
  6
Continuous
 62
     7
370
    25
100
AcDbLine
 10
6318.5187553361
 20
4829.3975590968
 30
0.0
 11
6314.9251077451
 21
4829.3975590968
 31
0.0
  0
SPLINE
  5
306
330
1F
100
AcDbEntity
  8
0
  6
Continuous
 62
     7
370
    25
100
AcDbSpline
210
0.0
220
0.0
230
1.0
 70
     8
 71
     3
 72
    16
 73
    12
 74
     0
 42
0.00000001
 43
0.00000001
 40
0.0
 40
0.0
 40
0.0
 40
0.0
 40
0.1208633539790745
 40
0.244901284695891
 40
0.3640309267626554
 40
0.4869925532530159
 40
0.6099541797433764
 40
0.7290838218101392
 40
0.8531217525269585
 40
0.9739851065060301
 40
1.0
 40
1.0
 40
1.0
 40
1.0
 10
6318.425107745079
 20
4830.147559096838
 30
0.0
 10
6318.402873572687
 20
4830.137594619053
 30
0.0
 10
6318.35782122883
 20
4830.117403938169
 30
0.0
 10
6318.011133529795
 20
4830.083372562101
 30
0.0
 10
6317.514639436859
 20
4830.055182534793
 30
0.0
 10
6316.924669245725
 20
4830.022560707973
 30
0.0
 10
6316.337302719865
 20
4829.989929314765
 30
0.0
 10
6315.833137361613
 20
4829.961767473221
 30
0.0
 10
6315.515259802361
 20
4829.927630242934
 30
0.0
 10
6315.38717423342
 20
4829.905582282938
 30
0.0
 10
6315.439977762639
 20
4829.893179741821
 30
0.0
 10
6315.449330258411
 20
4829.890983019081
 30
0.0
  0
SPLINE
  5
307
330
1F
100
AcDbEntity
  8
0
  6
Continuous
 62
     7
370
    25
100
AcDbSpline
210
0.0
220
0.0
230
1.0
 70
     8
 71
     3
 72
    15
 73
    11
 74
     0
 42
0.00000001
 43
0.00000001
 40
0.0
 40
0.0
 40
0.0
 40
0.0
 40
0.1240915833021788
 40
0.251442535476157
 40
0.3737540998635401
 40
0.5000000000000011
 40
0.626245900136462
 40
0.7485574645238435
 40
0.8759084166978246
 40
1.0
 40
1.0
 40
1.0
 40
1.0
 10
6318.425107745079
 20
4829.647559096838
 30
0.0
 10
6318.402871030561
 20
4829.637594628393
 30
0.0
 10
6318.357813535683
 20
4829.617403966436
 30
0.0
 10
6318.011164723385
 20
4829.583372447491
 30
0.0
 10
6317.514526199306
 20
4829.555182950851
 30
0.0
 10
6316.925107745079
 20
4829.522559096838
 30
0.0
 10
6316.335689290852
 20
4829.489935242826
 30
0.0
 10
6315.839050766773
 20
4829.461745746186
 30
0.0
 10
6315.492401954474
 20
4829.427714227241
 30
0.0
 10
6315.447344459597
 20
4829.407523565284
 30
0.0
 10
6315.425107745079
 20
4829.397559096838
 30
0.0
  0
SPLINE
  5
308
330
1F
100
AcDbEntity
  8
0
  6
Continuous
 62
     7
370
    25
100
AcDbSpline
210
0.0
220
0.0
230
1.0
 70
     8
 71
     3
 72
    17
 73
    13
 74
     0
 42
0.00000001
 43
0.00000001
 40
0.0
 40
0.0
 40
0.0
 40
0.0
 40
0.0002040646982953
 40
0.1207008918707719
 40
0.2443719111236912
 40
0.3668718578513781
 40
0.4857303517941078
 40
0.608325090823607
 40
0.7270887103754695
 40
0.8507597296283883
 40
0.9712565568008649
 40
1.0
 40
1.0
 40
1.0
 40
1.0
 10
6318.154318609971
 20
4829.991360838162
 30
0.0
 10
6318.154370756641
 20
4829.991343590922
 30
0.0
 10
6318.185214648463
 20
4829.981142134023
 30
0.0
 10
6318.075965946274
 20
4829.961252464359
 30
0.0
 10
6317.818674977379
 20
4829.926761571882
 30
0.0
 10
6317.401386728161
 20
4829.898626973904
 30
0.0
 10
6316.920331015675
 20
4829.865967162881
 30
0.0
 10
6316.443218541918
 20
4829.833683625258
 30
0.0
 10
6316.030264322405
 20
4829.80551379173
 30
0.0
 10
6315.769236771635
 20
4829.771384024561
 30
0.0
 10
6315.664530276839
 20
4829.7490987022
 30
0.0
 10
6315.709148439309
 20
4829.736456131754
 30
0.0
 10
6315.717741827778
 20
4829.734021192414
 30
0.0
  0
SPLINE
  5
309
330
1F
100
AcDbEntity
  8
0
  6
Continuous
 62
     7
370
    25
100
AcDbSpline
210
0.0
220
0.0
230
1.0
 70
     8
 71
     3
 72
    15
 73
    11
 74
     0
 42
0.00000001
 43
0.00000001
 40
0.0
 40
0.0
 40
0.0
 40
0.0
 40
0.0354120530580261
 40
0.1760912400089576
 40
0.3204762735915468
 40
0.4591319529978652
 40
0.6022604370901928
 40
0.7453889211825201
 40
0.8840446005888409
 40
1.0
 40
1.0
 40
1.0
 40
1.0
 10
6318.130761614353
 20
4830.374010671509
 30
0.0
 10
6318.140070746732
 20
4830.371436862833
 30
0.0
 10
6318.186361670936
 20
4830.358638249863
 30
0.0
 10
6318.080961148825
 20
4830.336238866166
 30
0.0
 10
6317.819922913774
 20
4830.302102212325
 30
0.0
 10
6317.407122264721
 20
4830.273938668405
 30
0.0
 10
6316.924443778279
 20
4830.241301435546
 30
0.0
 10
6316.445707594344
 20
4830.208709695659
 30
0.0
 10
6316.049604827281
 20
4830.182299844677
 30
0.0
 10
6315.906614801989
 20
4830.162421653806
 30
0.0
 10
6315.841494047732
 20
4830.153368695181
 30
0.0
  0
SPLINE
  5
30A
330
1F
100
AcDbEntity
  8
0
  6
Continuous
 62
     7
370
    25
100
AcDbSpline
210
0.0
220
0.0
230
1.0
 70
     8
 71
     3
 72
    15
 73
    11
 74
     0
 42
0.00000001
 43
0.00000001
 40
0.0
 40
0.0
 40
0.0
 40
0.0
 40
0.0354120530580261
 40
0.1760912400089576
 40
0.3204762735915468
 40
0.4591319529978652
 40
0.6022604370901928
 40
0.7453889211825201
 40
0.8840446005888409
 40
1.0
 40
1.0
 40
1.0
 40
1.0
 10
6318.130761614353
 20
4829.87401067151
 30
0.0
 10
6318.140070746732
 20
4829.871436862833
 30
0.0
 10
6318.186361670936
 20
4829.858638249863
 30
0.0
 10
6318.080961148825
 20
4829.836238866166
 30
0.0
 10
6317.819922913774
 20
4829.802102212324
 30
0.0
 10
6317.407122264721
 20
4829.773938668405
 30
0.0
 10
6316.924443778279
 20
4829.741301435546
 30
0.0
 10
6316.445707594344
 20
4829.708709695659
 30
0.0
 10
6316.049604827281
 20
4829.682299844677
 30
0.0
 10
6315.906614801989
 20
4829.662421653806
 30
0.0
 10
6315.841494047732
 20
4829.653368695181
 30
0.0
  0
SPLINE
  5
30B
330
1F
100
AcDbEntity
  8
0
  6
Continuous
 62
     7
370
    25
100
AcDbSpline
210
0.0
220
0.0
230
1.0
 70
     8
 71
     3
 72
    16
 73
    12
 74
     0
 42
0.00000001
 43
0.00000001
 40
0.0
 40
0.0
 40
0.0
 40
0.0
 40
0.0275835462714439
 40
0.1482522436437102
 40
0.2720904049356844
 40
0.3910281826272545
 40
0.5137917731357226
 40
0.6365553636441899
 40
0.75549314133576
 40
0.8793313026277341
 40
1.0
 40
1.0
 40
1.0
 40
1.0
 10
6318.399383225718
 20
4830.217042949849
 30
0.0
 10
6318.40938228313
 20
4830.21470976644
 30
0.0
 10
6318.463123839096
 20
4830.202169693754
 30
0.0
 10
6318.335234031791
 20
4830.179986929416
 30
0.0
 10
6318.017006119981
 20
4830.145850986395
 30
0.0
 10
6317.512932417299
 20
4830.11768880809
 30
0.0
 10
6316.925540904749
 20
4830.085057506689
 30
0.0
 10
6316.335577432213
 20
4830.052435655182
 30
0.0
 10
6315.839081580512
 20
4830.024245634337
 30
0.0
 10
6315.492394355008
 20
4829.99021425653
 30
0.0
 10
6315.447341948427
 20
4829.970023575875
 30
0.0
 10
6315.425107745079
 20
4829.960059098204
 30
0.0
  0
SPLINE
  5
30C
330
1F
100
AcDbEntity
  8
0
  6
Continuous
 62
     7
370
    25
100
AcDbSpline
210
0.0
220
0.0
230
1.0
 70
     8
 71
     3
 72
    15
 73
    11
 74
     0
 42
0.00000001
 43
0.00000001
 40
0.0
 40
0.0
 40
0.0
 40
0.0
 40
0.0322783217870206
 40
0.1734850761714392
 40
0.3184007436624589
 40
0.4575819723261748
 40
0.6012401749070769
 40
0.744898377487978
 40
0.884079606151694
 40
1.0
 40
1.0
 40
1.0
 40
1.0
 10
6318.399383225718
 20
4829.717042949848
 30
0.0
 10
6318.409382110959
 20
4829.714709765628
 30
0.0
 10
6318.463122741559
 20
4829.702169688573
 30
0.0
 10
6318.335258619943
 20
4829.679987045474
 30
0.0
 10
6318.016916783441
 20
4829.645850564722
 30
0.0
 10
6317.513254351946
 20
4829.617690327639
 30
0.0
 10
6316.924294943719
 20
4829.585051625686
 30
0.0
 10
6316.340161683256
 20
4829.552457293092
 30
0.0
 10
6315.857384307202
 20
4829.526084025099
 30
0.0
 10
6315.683168052311
 20
4829.506240802101
 30
0.0
 10
6315.604002672322
 20
4829.497223869153
 30
0.0
  0
LINE
  5
30D
330
1F
100
AcDbEntity
  8
0
  6
Continuous
 62
     7
370
    25
100
AcDbLine
 10
6249.0187553361
 20
4828.3975590968
 30
0.0
 11
6249.0187553361
 21
4829.8975590968
 31
0.0
  0
LINE
  5
30E
330
1F
100
AcDbEntity
  8
0
  6
Continuous
 62
     7
370
    25
100
AcDbLine
 10
6237.0187553361
 20
4828.3975590968
 30
0.0
 11
6237.0187553361
 21
4829.8975590968
 31
0.0
  0
LINE
  5
30F
330
1F
100
AcDbEntity
  8
0
  6
Continuous
 62
     7
370
    25
100
AcDbLine
 10
6249.0187553361
 20
4829.8975590968
 30
0.0
 11
6237.0187553361
 21
4829.8975590968
 31
0.0
  0
LINE
  5
310
330
1F
100
AcDbEntity
  8
0
  6
Continuous
 62
     7
370
    25
100
AcDbLine
 10
6261.0187553361
 20
4828.3975590968
 30
0.0
 11
6261.0187553361
 21
4829.8975590968
 31
0.0
  0
LINE
  5
311
330
1F
100
AcDbEntity
  8
0
  6
Continuous
 62
     7
370
    25
100
AcDbLine
 10
6261.0187553361
 20
4829.8975590968
 30
0.0
 11
6249.0187553361
 21
4829.8975590968
 31
0.0
  0
LINE
  5
312
330
1F
100
AcDbEntity
  8
0
  6
Continuous
 62
     7
370
    25
100
AcDbLine
 10
6237.0187553361
 20
4824.2975590968
 30
0.0
 11
6261.0187553361
 21
4824.2975590968
 31
0.0
  0
LINE
  5
313
330
1F
100
AcDbEntity
  8
0
  6
Continuous
 62
     7
370
    25
100
AcDbLine
 10
6260.0187553361
 20
4823.2975590968
 30
0.0
 11
6238.0187553361
 21
4823.2975590968
 31
0.0
  0
LINE
  5
314
330
1F
100
AcDbEntity
  8
0
  6
Continuous
 62
     7
370
    25
100
AcDbLine
 10
6240.0187553361
 20
4830.3975590968
 30
0.0
 11
6240.0187553361
 21
4829.8975590968
 31
0.0
  0
LINE
  5
315
330
1F
100
AcDbEntity
  8
0
  6
Continuous
 62
     7
370
    25
100
AcDbLine
 10
6258.0187553361
 20
4830.3975590968
 30
0.0
 11
6258.0187553361
 21
4829.8975590968
 31
0.0
  0
LINE
  5
316
330
1F
100
AcDbEntity
  8
0
  6
Continuous
 62
     7
370
    25
100
AcDbLine
 10
6248.5795780464
 20
4823.0975590968
 30
0.0
 11
6243.6187553361
 21
4823.0975590968
 31
0.0
  0
LINE
  5
317
330
1F
100
AcDbEntity
  8
0
  6
Continuous
 62
     7
370
    25
100
AcDbLine
 10
6254.4187553361
 20
4823.0975590968
 30
0.0
 11
6249.5795780464
 21
4823.0975590968
 31
0.0
  0
SPLINE
  5
318
330
1F
100
AcDbEntity
  8
0
  6
Continuous
 62
     7
370
    25
100
AcDbSpline
210
0.0
220
0.0
230
1.0
 70
    24
 71
     3
 72
    13
 73
     9
 74
     0
 42
0.00000001
 43
0.00000001
 40
0.0
 40
0.0
 40
0.0
 40
0.0
 40
0.0078315083444775
 40
0.2242134010656828
 40
0.440506527411377
 40
0.6560344530517136
 40
0.8704785517425164
 40
0.9999999999999999
 40
0.9999999999999999
 40
0.9999999999999999
 40
0.9999999999999999
 10
6249.579578046397
 20
4823.097559096838
 30
0.0
 10
6249.579578046397
 20
4823.097562348407
 30
0.0
 10
6249.579578046397
 20
4823.097655439717
 30
0.0
 10
6249.579578046397
 20
4823.106154285692
 30
0.0
 10
6249.579578046397
 20
4823.140370533695
 30
0.0
 10
6249.579578046397
 20
4823.192430058471
 30
0.0
 10
6249.579578046397
 20
4823.248001808594
 30
0.0
 10
6249.579578046397
 20
4823.284002796855
 30
0.0
 10
6249.579578046397
 20
4823.297559096838
 30
0.0
  0
SPLINE
  5
319
330
1F
100
AcDbEntity
  8
0
  6
Continuous
 62
     7
370
    25
100
AcDbSpline
210
0.0
220
0.0
230
1.0
 70
    24
 71
     3
 72
    13
 73
     9
 74
     0
 42
0.00000001
 43
0.00000001
 40
0.0
 40
0.0
 40
0.0
 40
0.0
 40
0.0254342784919342
 40
0.2391405405228668
 40
0.4528843033372799
 40
0.6670512278740933
 40
0.8818628295038904
 40
1.0
 40
1.0
 40
1.0
 40
1.0
 10
6248.579578046397
 20
4823.297559096838
 30
0.0
 10
6248.579578046397
 20
4823.294903081679
 30
0.0
 10
6248.579578046397
 20
4823.269930448733
 30
0.0
 10
6248.579578046397
 20
4823.222642615022
 30
0.0
 10
6248.579578046397
 20
4823.164259547422
 30
0.0
 10
6248.579578046397
 20
4823.121030133711
 30
0.0
 10
6248.579578046397
 20
4823.100164216851
 30
0.0
 10
6248.579578046397
 20
4823.098241364845
 30
0.0
 10
6248.579578046397
 20
4823.097559096838
 30
0.0
  0
LINE
  5
31A
330
1F
100
AcDbEntity
  8
0
  6
Continuous
 62
     7
370
    25
100
AcDbLine
 10
6248.5795780464
 20
4823.0975590968
 30
0.0
 11
6249.1127409747
 21
4823.0975590968
 31
0.0
  0
LINE
  5
31B
330
1F
100
AcDbEntity
  8
0
  6
Continuous
 62
     7
370
    25
100
AcDbLine
 10
6249.1127409747
 20
4823.0975590968
 30
0.0
 11
6249.5795780464
 21
4823.0975590968
 31
0.0
  0
LINE
  5
31C
330
1F
100
AcDbEntity
  8
0
  6
Continuous
 62
     8
370
    25
100
AcDbLine
 10
6324.5714763567
 20
4825.3938059357
 30
0.0
 11
6324.5714763567
 21
4825.3975590968
 31
0.0
  0
LINE
  5
31D
330
1F
100
AcDbEntity
  8
0
  6
Continuous
 62
     8
370
    25
100
AcDbLine
 10
6328.4660343156
 20
4825.3975590968
 30
0.0
 11
6328.4660343156
 21
4825.3938059357
 31
0.0
  0
LINE
  5
31E
330
1F
100
AcDbEntity
  8
0
  6
Continuous
 62
     8
370
    25
100
AcDbLine
 10
6219.5714763566
 20
4825.3938059357
 30
0.0
 11
6219.5714763566
 21
4825.3975590968
 31
0.0
  0
LINE
  5
31F
330
1F
100
AcDbEntity
  8
0
  6
Continuous
 62
     8
370
    25
100
AcDbLine
 10
6223.4660343155
 20
4825.3975590968
 30
0.0
 11
6223.4660343155
 21
4825.3938059357
 31
0.0
  0
LINE
  5
320
330
1F
100
AcDbEntity
  8
0
  6
Continuous
 62
     8
370
    25
100
AcDbLine
 10
6258.0571037514
 20
4932.8975590968
 30
0.0
 11
6254.0187553361
 21
4932.8975590968
 31
0.0
  0
ENDSEC
  0
SECTION
  2
OBJECTS
  0
DICTIONARY
  5
C
330
0
100
AcDbDictionary
281
     1
  3
ACAD_GROUP
350
D
  3
ACAD_LAYOUT
350
1A
  3
ACAD_MLINESTYLE
350
17
  3
ACAD_PLOTSETTINGS
350
19
  3
ACAD_PLOTSTYLENAME
350
E
  3
ACAD_SCALELIST
350
47
  3
DWGPROPS
350
321
  0
DICTIONARY
  5
D
102
{ACAD_REACTORS
330
C
102
}
330
C
100
AcDbDictionary
281
     1
  0
DICTIONARY
  5
1A
102
{ACAD_REACTORS
330
C
102
}
330
C
100
AcDbDictionary
281
     1
  3
Layout1
350
1E
  3
Layout2
350
26
  3
Model
350
22
  0
DICTIONARY
  5
17
102
{ACAD_REACTORS
330
C
102
}
330
C
100
AcDbDictionary
281
     1
  3
Standard
350
18
  0
DICTIONARY
  5
19
102
{ACAD_REACTORS
330
C
102
}
330
C
100
AcDbDictionary
281
     1
  0
ACDBDICTIONARYWDFLT
  5
E
102
{ACAD_REACTORS
330
C
102
}
330
C
100
AcDbDictionary
281
     1
  3
Normal
350
F
100
AcDbDictionaryWithDefault
340
F
  0
DICTIONARY
  5
47
102
{ACAD_REACTORS
330
C
102
}
330
C
100
AcDbDictionary
281
     1
  3
A0
350
48
  3
A1
350
49
  3
A2
350
4A
  3
A3
350
4B
  3
A4
350
4C
  3
A5
350
4D
  3
A6
350
4E
  3
A7
350
4F
  3
A8
350
50
  3
A9
350
51
  3
B0
350
52
  3
B1
350
53
  3
B2
350
54
  3
B3
350
55
  3
B4
350
56
  3
B5
350
57
  3
B6
350
58
  3
B7
350
59
  3
B8
350
5A
  3
B9
350
5B
  3
C0
350
5C
  3
C1
350
5D
  3
C2
350
5E
  3
C3
350
5F
  3
C4
350
60
  3
C5
350
61
  3
C6
350
62
  3
C7
350
63
  3
C8
350
64
  3
C9
350
65
  3
D0
350
66
  3
D1
350
67
  3
D2
350
68
  0
XRECORD
  5
321
102
{ACAD_REACTORS
330
C
102
}
330
C
100
AcDbXrecord
280
     1
  1
DWGPROPS COOKIE
  2

  3

  4

  6

  7

  8
radek.stransky
  9

300
=
301
=
302
=
303
=
304
=
305
=
306
=
307
=
308
=
309
=
 40
0.0
 41
2459100.394120764
 42
2459100.394123472
  1

 90
        0
  0
LAYOUT
  5
1E
102
{ACAD_REACTORS
330
1A
102
}
330
1A
100
AcDbPlotSettings
  1

  2
none_device
  4

  6

 40
0.0
 41
0.0
 42
0.0
 43
0.0
 44
0.0
 45
0.0
 46
0.0
 47
0.0
 48
0.0
 49
0.0
140
0.0
141
0.0
142
1.0
143
1.0
 70
   688
 72
     1
 73
     0
 74
     5
  7

 75
    16
147
1.0
148
0.0
149
0.0
100
AcDbLayout
  1
Layout1
 70
     1
 71
     1
 10
0.0
 20
0.0
 11
420.0
 21
297.0
 12
0.0
 22
0.0
 32
0.0
 14
1.0000000000E+20
 24
1.0000000000E+20
 34
1.0000000000E+20
 15
-1.0000000000E+20
 25
-1.0000000000E+20
 35
-1.0000000000E+20
146
0.0
 13
0.0
 23
0.0
 33
0.0
 16
1.0
 26
0.0
 36
0.0
 17
0.0
 27
1.0
 37
0.0
 76
     0
330
1B
  0
LAYOUT
  5
26
102
{ACAD_REACTORS
330
1A
102
}
330
1A
100
AcDbPlotSettings
  1

  2
none_device
  4

  6

 40
0.0
 41
0.0
 42
0.0
 43
0.0
 44
0.0
 45
0.0
 46
0.0
 47
0.0
 48
0.0
 49
0.0
140
0.0
141
0.0
142
1.0
143
1.0
 70
   688
 72
     1
 73
     0
 74
     5
  7

 75
    16
147
1.0
148
0.0
149
0.0
100
AcDbLayout
  1
Layout2
 70
     1
 71
     2
 10
0.0
 20
0.0
 11
0.0
 21
0.0
 12
0.0
 22
0.0
 32
0.0
 14
0.0
 24
0.0
 34
0.0
 15
0.0
 25
0.0
 35
0.0
146
0.0
 13
0.0
 23
0.0
 33
0.0
 16
1.0
 26
0.0
 36
0.0
 17
0.0
 27
1.0
 37
0.0
 76
     0
330
23
  0
LAYOUT
  5
22
102
{ACAD_REACTORS
330
1A
102
}
330
1A
100
AcDbPlotSettings
  1

  2
none_device
  4
Letter_(8.50_x_11.00_Inches)
  6

 40
6.35
 41
6.35
 42
6.35000508
 43
6.35000508
 44
215.9
 45
279.4
 46
0.0
 47
0.0
 48
0.0
 49
0.0
140
0.0
141
0.0
142
1.0
143
1.0
 70
  1712
 72
     1
 73
     0
 74
     0
  7

 75
     0
147
1.0
148
0.0
149
0.0
100
AcDbLayout
  1
Model
 70
     1
 71
     0
 10
0.0
 20
0.0
 11
20000.0
 21
10000.0
 12
0.0
 22
0.0
 32
0.0
 14
0.0
 24
0.0
 34
0.0
 15
20000.0
 25
10000.0
 35
0.0
146
0.0
 13
0.0
 23
0.0
 33
0.0
 16
1.0
 26
0.0
 36
0.0
 17
0.0
 27
1.0
 37
0.0
 76
     0
330
1F
331
29
  0
MLINESTYLE
  5
18
102
{ACAD_REACTORS
330
17
102
}
330
17
100
AcDbMlineStyle
  2
Standard
 70
     0
  3

 62
   256
 51
90.0
 52
90.0
 71
     2
 49
0.5
 62
   256
  6
BYLAYER
 49
-0.5
 62
   256
  6
BYLAYER
  0
ACDBPLACEHOLDER
  5
F
102
{ACAD_REACTORS
330
E
102
}
330
E
  0
SCALE
  5
48
102
{ACAD_REACTORS
330
47
102
}
330
47
100
AcDbScale
 70
     0
300
1:1
140
1.0
141
1.0
290
     1
  0
SCALE
  5
49
102
{ACAD_REACTORS
330
47
102
}
330
47
100
AcDbScale
 70
     0
300
1:2
140
1.0
141
2.0
290
     0
  0
SCALE
  5
4A
102
{ACAD_REACTORS
330
47
102
}
330
47
100
AcDbScale
 70
     0
300
1:4
140
1.0
141
4.0
290
     0
  0
SCALE
  5
4B
102
{ACAD_REACTORS
330
47
102
}
330
47
100
AcDbScale
 70
     0
300
1:5
140
1.0
141
5.0
290
     0
  0
SCALE
  5
4C
102
{ACAD_REACTORS
330
47
102
}
330
47
100
AcDbScale
 70
     0
300
1:8
140
1.0
141
8.0
290
     0
  0
SCALE
  5
4D
102
{ACAD_REACTORS
330
47
102
}
330
47
100
AcDbScale
 70
     0
300
1:10
140
1.0
141
10.0
290
     0
  0
SCALE
  5
4E
102
{ACAD_REACTORS
330
47
102
}
330
47
100
AcDbScale
 70
     0
300
1:16
140
1.0
141
16.0
290
     0
  0
SCALE
  5
4F
102
{ACAD_REACTORS
330
47
102
}
330
47
100
AcDbScale
 70
     0
300
1:20
140
1.0
141
20.0
290
     0
  0
SCALE
  5
50
102
{ACAD_REACTORS
330
47
102
}
330
47
100
AcDbScale
 70
     0
300
1:30
140
1.0
141
30.0
290
     0
  0
SCALE
  5
51
102
{ACAD_REACTORS
330
47
102
}
330
47
100
AcDbScale
 70
     0
300
1:40
140
1.0
141
40.0
290
     0
  0
SCALE
  5
52
102
{ACAD_REACTORS
330
47
102
}
330
47
100
AcDbScale
 70
     0
300
1:50
140
1.0
141
50.0
290
     0
  0
SCALE
  5
53
102
{ACAD_REACTORS
330
47
102
}
330
47
100
AcDbScale
 70
     0
300
1:100
140
1.0
141
100.0
290
     0
  0
SCALE
  5
54
102
{ACAD_REACTORS
330
47
102
}
330
47
100
AcDbScale
 70
     0
300
2:1
140
2.0
141
1.0
290
     0
  0
SCALE
  5
55
102
{ACAD_REACTORS
330
47
102
}
330
47
100
AcDbScale
 70
     0
300
4:1
140
4.0
141
1.0
290
     0
  0
SCALE
  5
56
102
{ACAD_REACTORS
330
47
102
}
330
47
100
AcDbScale
 70
     0
300
8:1
140
8.0
141
1.0
290
     0
  0
SCALE
  5
57
102
{ACAD_REACTORS
330
47
102
}
330
47
100
AcDbScale
 70
     0
300
10:1
140
10.0
141
1.0
290
     0
  0
SCALE
  5
58
102
{ACAD_REACTORS
330
47
102
}
330
47
100
AcDbScale
 70
     0
300
100:1
140
100.0
141
1.0
290
     0
  0
SCALE
  5
59
102
{ACAD_REACTORS
330
47
102
}
330
47
100
AcDbScale
 70
     0
300
1/128" = 1'-0"
140
0.0078125
141
12.0
290
     0
  0
SCALE
  5
5A
102
{ACAD_REACTORS
330
47
102
}
330
47
100
AcDbScale
 70
     0
300
1/64" = 1'-0"
140
0.015625
141
12.0
290
     0
  0
SCALE
  5
5B
102
{ACAD_REACTORS
330
47
102
}
330
47
100
AcDbScale
 70
     0
300
1/32" = 1'-0"
140
0.03125
141
12.0
290
     0
  0
SCALE
  5
5C
102
{ACAD_REACTORS
330
47
102
}
330
47
100
AcDbScale
 70
     0
300
1/16" = 1'-0"
140
0.0625
141
12.0
290
     0
  0
SCALE
  5
5D
102
{ACAD_REACTORS
330
47
102
}
330
47
100
AcDbScale
 70
     0
300
3/32" = 1'-0"
140
0.09375
141
12.0
290
     0
  0
SCALE
  5
5E
102
{ACAD_REACTORS
330
47
102
}
330
47
100
AcDbScale
 70
     0
300
1/8" = 1'-0"
140
0.125
141
12.0
290
     0
  0
SCALE
  5
5F
102
{ACAD_REACTORS
330
47
102
}
330
47
100
AcDbScale
 70
     0
300
3/16" = 1'-0"
140
0.1875
141
12.0
290
     0
  0
SCALE
  5
60
102
{ACAD_REACTORS
330
47
102
}
330
47
100
AcDbScale
 70
     0
300
1/4" = 1'-0"
140
0.25
141
12.0
290
     0
  0
SCALE
  5
61
102
{ACAD_REACTORS
330
47
102
}
330
47
100
AcDbScale
 70
     0
300
3/8" = 1'-0"
140
0.375
141
12.0
290
     0
  0
SCALE
  5
62
102
{ACAD_REACTORS
330
47
102
}
330
47
100
AcDbScale
 70
     0
300
1/2" = 1'-0"
140
0.5
141
12.0
290
     0
  0
SCALE
  5
63
102
{ACAD_REACTORS
330
47
102
}
330
47
100
AcDbScale
 70
     0
300
3/4" = 1'-0"
140
0.75
141
12.0
290
     0
  0
SCALE
  5
64
102
{ACAD_REACTORS
330
47
102
}
330
47
100
AcDbScale
 70
     0
300
1" = 1'-0"
140
1.0
141
12.0
290
     0
  0
SCALE
  5
65
102
{ACAD_REACTORS
330
47
102
}
330
47
100
AcDbScale
 70
     0
300
1-1/2" = 1'-0"
140
1.5
141
12.0
290
     0
  0
SCALE
  5
66
102
{ACAD_REACTORS
330
47
102
}
330
47
100
AcDbScale
 70
     0
300
3" = 1'-0"
140
3.0
141
12.0
290
     0
  0
SCALE
  5
67
102
{ACAD_REACTORS
330
47
102
}
330
47
100
AcDbScale
 70
     0
300
6" = 1'-0"
140
6.0
141
12.0
290
     0
  0
SCALE
  5
68
102
{ACAD_REACTORS
330
47
102
}
330
47
100
AcDbScale
 70
     0
300
1'-0" = 1'-0"
140
12.0
141
12.0
290
     0
  0
ENDSEC
  0
EOF
